Song name
# A B C D E F G H I J K L M N O P Q R S T U V W X Y Z

Forsaken - Aidenn Falls tab

----------------------------------------------------------------------------
			  AIDENN FALLS - Forsaken
                         GUITARIST -  Sean Vukovic
----------------------------------------------------------------------------

Tuning: Standard E (E-A-D-G-B-e)
************************************
forsaken: http://www.forsakenmalta.com
************************************
this is the rythm guitar part of the song
************************************
| /   slide up
| \   slide down
| h   hammer-on
| p   pull-off
| ~   vibrato
| +   harmonic
| x   Mute note
| b   Bend
| pb  Pre-bend
| br  Bend release
| pbr Pre-bend release
| brb Bend release bend
| *   palm muting
************************************

INTRO / RIFF 1

e|------------------------------------------| repeat as many times necessary
B|------------------------------------------|
G|------------------------------------------|
D|------------------------------3-4-0-------|
A|-2-2-3-2-3-4-2-2-2-4-2--4-3-2-------------|
E|-0-0-1-0-1-2-0-0-0-2-0--------------------|
 PM***   *     *****   *

BREAKDOWN

e|--------------------------------------------------|
B|--------------------------------------------------|
G|--------------------------------------------------|
D|--------------------------------------------------|
A|---------4---------5---------6--2-1-0-------2-----|
E|-0-0-0-0-2-0-0-0-0-3-0-0-0-0-4--------3-2-1-0-----|
 PM*******   *******   *******

repeat RIFF 1

repeat BREAKDOWN


CHORUS

e|-----------------------------------------------------------------------|
B|-----------------------------------------------------------------------|
G|-----------------------------------------------------------------------|
D|-----------------------------------------------------------------------|
A|-9-9-9-9-9-9-9-9-9-9-9-9-10-10-10-10--11-11-11-11-11-11-11-11-11-11-11-|
E|-7-7-7-7-7-7-7-7-7-7-7-7-8--8--8--8---9--9--9--9--9--9--9--9--9--9--9--|


e|--------------------------------------------------| repeat
B|--------------------------------------------------| as many
G|--------------------------------------------------| times
D|--------------------------------------------------| necessary
A|-9-9-7-7-7-7-7-7-7-7-7-7-7-7-6-6-5-5-5-5-5-5-5----|
E|-7-7-5-5-5-5-5-5-5-5-5-5-5-5-4-4-3-3-3-3-3-3-3----|


repeat RIFF 1

repeat CHORUS

repeat RIFF 1

repeat CHORUS

outro is done on the lead
Tap to rate this tab
 
# A B C D E F G H I J K L M N O P Q R S T U V W X Y Z