Song name
# A B C D E F G H I J K L M N O P Q R S T U V W X Y Z

Forseti - Korn tab

slaome@yahoo.com
Tuning: Standard
Difficulty: very easy

Play slowly and gently, let ring lower notes, don't do any buzz.

Nylon stringed guitar:

E||--------0-----|--------0-----|--------0-----|--------3-----|--------0-----|
B||-----------0--|--1--------1--|--1--------0--|--0--------0--|--0--------0--|
G||-----0--------|-----2--------|-----0--------|-----0--------|-----0--------|
D||--------------|--------------|--------------|--------------|--------------|
A||--------------|--0-----------|--3-----------|--------------|--------------|
E||--0-----------|--------------|--------------|--3-----------|--0-----------|

--------0-----|--------0-----|--------3-----|--------------|--------0-----|
--1--------1--|--1--------0--|--0--------0--|--1-----1-----|--0--------0--|
-----2--------|-----0--------|-----0--------|-----2-----0--|-----0--------|
--------------|--------------|--------------|--------------|--------------|
--0-----------|--3-----------|--------------|--0-----3-----|--------------|
--------------|--------------|--3-----------|--------------|--0-----------|

--------------|--------0-----|-----0--------|--------0-----|--------0-----|
--1-----3-----|--0--------0--|--------0-----|-----------0--|--1--------1--|
-----2-----4--|-----0--------|--0--------0--|-----0--------|-----2--------|
--------4-----|--------------|--------------|--------------|--------------|
--0-----------|--------------|--------------|--------------|--0-----------|
--------------|--0-----------|--------------|--0-----------|--------------|

--------0-----|--------3-----|--------0-----|--------0-----|--------0-----|
--1--------0--|--0--------0--|--0--------0--|--1--------1--|--1--------0--|
-----0--------|-----0--------|-----0--------|-----2--------|-----0--------|
--------------|--------------|--------------|--------------|--------------|
--3-----------|--------------|--------------|--0-----------|--3-----------|
--------------|--3-----------|--0-----------|--------------|--------------|

--------3-----|--------------|--------0-----|--------------|--0--------||
--0--------0--|--1-----1-----|--0--------0--|--1-----3-----|--0--------||
-----0--------|-----2-----0--|-----0--------|-----2-----4--|--0--------||
--------------|--------------|--------------|--------4-----|--2--------||
--------------|--0-----3-----|--------------|--0-----------|--2--------||
--3-----------|--------------|--0-----------|--------------|--0--------||

The chords are just as in the intro, so: Em, Am, C, G through the song, figure out the 
by ear, it's easy even for a beginner.


Electric guitar:

E||--------------|--------------|--------------|--------------|
B||--0--------0--|--1--------1--|--1--------1--|--0--------0--|
G||-----0--------|-----2--------|-----0--------|-----0--------|
D||--------2-----|--------2-----|--------2-----|--------0-----|
A||--------------|--------------|--------------|--------------|
E||--------------|--------------|--------------|--------------|

--------------|--------------|--------------|--------------|--------------|
--0--------0--|--1--------1--|--1--------1--|--0--------0--|--1-----1-----|
-----0--------|-----2--------|-----0--------|-----0--------|-----2-----0--|
--------2-----|--------2-----|--------2-----|--------0-----|--------------|
--------------|--------------|--------------|--------------|--------------|
--------------|--------------|--------------|--------------|--------------|

--------------|--------------|-----------||
--0--------0--|--1-----3-----|--0--------||
-----0--------|-----2-----4--|-----------||
--------2-----|--------------|-----------||
--------------|--------------|-----------||
--------------|--------------|-----------||
Tap to rate this tab
# A B C D E F G H I J K L M N O P Q R S T U V W X Y Z