Song name
# A B C D E F G H I J K L M N O P Q R S T U V W X Y Z

Forseti - Erdennacht tab

Forseti - Erdennacht

www.forseti-netz.de

Great song from a great band. Hope you enjoy

RIFF 1
   Am                              C
|-----------------------------------------------------0-0----------------------------------|
|-1-1-0-0-1-3-1-0-1-1-0-0-1-3-1-0-0-0-1-1-3-3-1-1-3-3-----3-1-3-0--------------------------|
|------------------------------------------------------------------------------------------|
|------------------------------------------------------------------------------------------|
|------------------------------------------------------------------------------------------|
|------------------------------------------------------------------------------------------|

VERSE

Am/Asus2/Am/Asus4/Asus2 X2
C/C*/C/Csus2/C*         X2


    Am      Asus2    Asus4    C       C*     Csus2
|---0---|----0---|----0---|---0--|---0---|----0---|-------------------------------------------|
|---1---|----0---|----3---|---1--|---0---|----3---|-------------------------------------------|
|---2---|----2---|----2---|---0--|---0---|----0---|-------------------------------------------|
|---2---|----2---|----2---|---2--|---2---|----2---|-------------------------------------------|
|---0---|----0---|----0---|---3--|---3---|----3---|-------------------------------------------|
|-------|--------|--------|------|-------|--------|-------------------------------------------|



VIOLIN RIFF1

       Am                C
|------------------------------------------------------------------------------------------|
|-1-0------0-1------0-1-0~~----0-1-0~~--1-3~~----------------------------------------------|
|-----2~~------2~~-----------2-------------------------------------------------------------|
|------------------------------------------------------------------------------------------|
|------------------------------------------------------------------------------------------|
|------------------------------------------------------------------------------------------|

VIOLIN RIFF2

|------------------------------------------------------------------------------------------|
|---------0-1--------0-1-5~~--3-5-6-5~~-5-3-1----------------------------------------------|
|--2~~--2-----2~~--2--------------------------2--------------------------------------------|
|------------------------------------------------------------------------------------------|
|------------------------------------------------------------------------------------------|
|------------------------------------------------------------------------------------------|


OUTRO

Em G Dm C
Em G Dm C


Lyrics:


[RIFF1]

[RIFF1] + [VRIFF1] X2

[VERSE] X2

[VERSE] X2
Höher kann der Mut nicht streben,
Wunderbar bin ich besiegt,
Und ich fühle wie das Leben
Seinem Widerstand erliegt.


[VERSE] X2
Festen Trittes geht mein Sehnen
Auf die Dauer, Sicherheit;
Alle Wünsche, alle Tränen
Zittern vor der Ewigkeit.

[VERSE] + [VRIFF2] X2


[VERSE] X2
Frühling, Herbst und Sommer kommen,
Wie ein Lächeln gehen sie fort,
Und die Flammen sind verglommen,
Liebe flieht, ein eilend Wort.


[VERSE] X2
Willst du tiefer, inniger walten,
Als um dich die ganze Welt,
Was die wechselnden Gestalten
Bindet und zusammenhält?


[OUTRO] X4
Laß entfliehen, laß entfließen,
Dem nicht Dauer ist geliehen,
Demutvoll sollst du genießen,
Und im Stolze sollst du büßen,
Alles, alles muß verblühn.

[RIFF 1]

[RIFF 1]+[VRIFF 1] X2 end (with Am B|---1~~)


Comments? ludo-van@libero.it
Tap to rate this tab
# A B C D E F G H I J K L M N O P Q R S T U V W X Y Z