Song name
# A B C D E F G H I J K L M N O P Q R S T U V W X Y Z

Forseti - Der Graue Konig tab

Help us improve GuitareTab! Take a short survey!
Main riff:


          Em      Csus9    C          G           Am    Amsus9
e|---------0---------------------3------3----------------------------|
 |-----------0-----3-----1----------------0-------1-----0------0-----|
 |-------0-----0-----0-----0---0------------0-------2-----2--2-------|
 |-----2---------2-----2-----2--------0-------0-------2-----2--------|
 |---2-------------3-----3----------2-----------2-0-----0------------|
E|-0------------------------------3----------------------------------|

Accordition: Em/ Csus9 C/ G/ Am Amsus9


Interlude:

e|-----------------------------------------|
 |----0--0-1----0--0-1---------------------|
 |-----------------------------------------|
 |-----------------------------------------|
 |----2--2-3----2--2-3---------------------|
E|-----------------------------------------|


Accordition: A|----2-0-2-3----2-3-2-0------


Guitar with accordition:
e|------0----------------------------------|
 |--------0--------------------------------|
 |----0------------------------------------|
 |-----------------------------------------|
 |-----------------------------------------|
E|-----------------------------------------|


Outro:

Violin:

e|------------------------------------------|
 |------5---3-1-3-1-0-1-0---0---------------|
 |------------------------2---0-0--2-4-2----|
 |------------------------------------------|
 |------------------------------------------|
E|------------------------------------------|

e|---------0-2-3--2-0------------------------|
 |--------------------3-0--3--3-5-3-1--------|
 |---2-4-4-----------------------------------|
 |-------------------------------------------|
 |-------------------------------------------|
E|-------------------------------------------|

e|---------0--2-3-3--0-2-3-2-5-7-5-5-------|
 |---0---0---------------------------------|
 |-----2-----------------------------------|
 |-----------------------------------------|
 |-----------------------------------------|
E|-----------------------------------------|

e|---5-7-7-3-0----7-7-3-0----7-8-7-3-0-----|
 |-----------------------------------------|
 |-----------------------------------------|
 |-----------------------------------------|
 |-----------------------------------------|
E|-----------------------------------------|

e|-----------------0-2-3-----0-2-3--etc...-|
 |---3-5-3-1-0---0---------0---------------|
 |-------------2---------2-----------------|
 |-----------------------------------------|
 |-----------------------------------------|
E|-----------------------------------------|


lyrics:

Der graue Knig

Aus den Tlern in die Weiten
Schroffgeformter Bergeshhn,
Blassverhangen von Gezeiten
Wachsen Nebelschleier khn.

Dicht gewoben aus Essenzen
Abendschwerer Sommerdfte
Fngt mit seinen lichten Krnzen
Sanfter Nebel Regenlfte.

Tanzt der junge Regen lachend,
Folgt den leichten Mdchenschritten
Jener graue Knig wachend
Mit kaum hrbar leisen Tritten.

Zieht den Mantel fahlen Lichts,
In dem Bltter sich verfingen,
Stolzen Hauptes hinter sich,
Um verzerrt sein Lied zu singen:

Bin geformt auf eine Weise,
Die vergeht wie Windeshauch,
Die erstirbt wie Regen leise,
Und verblht wie Rosen auch.

Doch so wie die Winde wehen,
Blaue Regen Tnze reichen,
Rosen nach dem Lichte gehen
Wird der Nebel nimmer weichen.

Wird erklimmen Bergeswand,
Ruhen in dem Moos, dem alten,
Um zu legen bers Land
Rastlos seines Mantels Falten.

comments? ludo-van@libero.it
Related for Der Graue Konig tab