Song name
# A B C D E F G H I J K L M N O P Q R S T U V W X Y Z

Fort Minor - Cover And Duck tab

Intro:

e|----------------------|
B|----------------------|
G|----66--6--666--6-----|
D|--4-xx--x--xxx--x-4---|  x8
A|--2-44--4--444--4-2---|
E|----------------------|


Verse:

e|----------------------         e|------------------------|
B|----------------------         B|------------------------|
G|----66--6--666--6-----         G|--66--6--666--13-/-11---|
D|--4-xx--x--xxx--x-4---  x10    D|--xx--x--xxx---x-/--x---|  x9
A|--2-44--4--444--4-2---         A|--44--4--444--11-/--9---|
E|----------------------         E|------------------------|


Chorus:

e|-----------------------------------------------|
B|-----------------------------------------------|
G|--13131313131313131313--16161616161616161616---|
D|--xxxxxxxxxxxxxxxxxxxx--xxxxxxxxxxxxxxxxxxxx---|  x2
A|--11111111111111111111--14141414141414141414---|
E|-----------------------------------------------|

e|------------------------|
B|------------------------|
G|--66--6--666--13-/-11---|
D|--xx--x--xxx---x-/--x---|  x2
A|--44--4--444--11-/--9---|
E|------------------------|


Verse:

e|----------------------       e|------------------------|
B|----------------------       B|------------------------|
G|----66--6--666--6-----       G|--66--6--666--13-/-11---|
D|--4-xx--x--xxx--x-4---  x4   D|--xx--x--xxx---x-/--x---|  x2
A|--2-44--4--444--4-2---       A|--44--4--444--11-/--9---|
E|----------------------       E|------------------------|


e|----------------------       e|------------------------|
B|----------------------       B|------------------------|
G|----66--6--666--6-----       G|--66--6--666--13-/-11---|
D|--4-xx--x--xxx--x-4---  x8   D|--xx--x--xxx---x-/--x---|  x8
A|--2-44--4--444--4-2---       A|--44--4--444--11-/--9---|
E|----------------------       E|------------------------|


Chorus:

e|-----------------------------------------------|
B|-----------------------------------------------|
G|--13131313131313131313--16161616161616161616---|
D|--xxxxxxxxxxxxxxxxxxxx--xxxxxxxxxxxxxxxxxxxx---|  x4
A|--11111111111111111111--14141414141414141414---|
E|-----------------------------------------------|


Verse:

e|----------------------         e|------------------------|
B|----------------------         B|------------------------|
G|----66--6--666--6-----         G|--66--6--666--13-/-11---|
D|--4-xx--x--xxx--x-4---  x12    D|--xx--x--xxx---x-/--x---|  x4
A|--2-44--4--444--4-2---         A|--44--4--444--11-/--9---|
E|----------------------         E|------------------------|


e|----------------------|
B|----------------------|
G|----66--6--666--6-----|
D|--4-xx--x--xxx--x-4---|
A|--2-44--4--444--4-2---|
E|----------------------|


Chorus:

e|-----------------------------------------------|
B|-----------------------------------------------|
G|--13131313131313131313--16161616161616161616---|
D|--xxxxxxxxxxxxxxxxxxxx--xxxxxxxxxxxxxxxxxxxx---|  x4
A|--11111111111111111111--14141414141414141414---|
E|-----------------------------------------------|


Outro:

e|----------------------|
B|----------------------|
G|----66--6--666--6-----|
D|--4-xx--x--xxx--x-4---|  x16
A|--2-44--4--444--4-2---|
E|----------------------|
Tap to rate this tab
# A B C D E F G H I J K L M N O P Q R S T U V W X Y Z