Song name
# A B C D E F G H I J K L M N O P Q R S T U V W X Y Z

Fort Minor - Remember The Name tab

e:-----------------------------------------------|
b:-------4--------------4------------------------|
g:-----5---5---5------5---5---5--------5---------|
d:---5-------5------5-------5--------6---6---6---|
a:-3--------------3----------------6-------6-----|
E:-------------------------------4---------------|


---------------------|}
---------------------|}
--------7------------|} and repeat
------8---8---8------|}
----8-------8--------|}
--6------------------|}


contact- helldemon618@hotmail.com
Tap to rate this tab
 
# A B C D E F G H I J K L M N O P Q R S T U V W X Y Z