Fort Minor - Remember The Name tab

sorry if this isn't the right way of doing tabs...
this is my first time to make a tab

when i listen to it, this is how it goes the whole song:

CAPO 1

          Bm              Bm               G             A            
e|--2---------------2---------------3-------------x-------------|
b|--4---------------4---------------2-------------0-------------|
g|--4--4-------4----4--4-------4----0--0-------0--2--2-------2--|
d|--3----3---3---3--3----3---3---3--0----0---0----2----2---2----|
a|--2------2--------2------2--------3------3------2------2------|
e|--2---------------2---------------3-------------0-------------|

or if you're having difficulty, try this:

          Bm              Bm               G             A            
e|--x---------------x---------------x-------------x-------------|
b|--4---------------4---------------2-------------0-------------|
g|--4--4-------4----4--4-------4----0--0-------0--2--2-------2--|
d|--3----3---3---3--3----3---3---3--0----0---0----2----2---2----|
a|--2------2--------2------2--------3------3------2------2------|
e|--x---------------x---------------x-------------x-------------|

hpoe i helped!!!!

email me at:
drik_domag@yahoo.com
if you have any concerns
or any criticism about my work
i'll appreciate it
Tap to rate this tab
 
# A B C D E F G H I J K L M N O P Q R S T U V W X Y Z