Song name
# A B C D E F G H I J K L M N O P Q R S T U V W X Y Z

Fort Minor - Kenji tab

Tuning: standart E (E A D G B E)

first part
E|-----------13--------13---------------13-------13-----|
B|-----11-------11--------11------11-------11-------11--|
G|--10----10-------10----------10----10-------10--------|
D|------------------------------------------------------|
A|------------------------------------------------------|
E|------------------------------------------------------|

second part
E|--14----14-----13----13-----11----11------------------|
B|-----11----11-----11----11-----11----11---------------|
G|------------------------------------------------------|
D|------------------------------------------------------|
A|------------------------------------------------------|
E|------------------------------------------------------|

back to first part
Tap to rate this tab
# A B C D E F G H I J K L M N O P Q R S T U V W X Y Z