Song name
# A B C D E F G H I J K L M N O P Q R S T U V W X Y Z

Fort Minor - Petrified tab

-------------------------------------------------------------------------------
			     Petrified - Fort Minor
-------------------------------------------------------------------------------
Tabbed by: Jose Jurado
Email: dark_age_o_e@hotmail.com

Tuning: Standard

e|---------------------------------------------------------------------------|
B|-10------------------12----------------------------------------------------|
G|-----11------11----------11------------------------------------------------|
D|---------13----------------------------------------------------------------|
A|-----------------14----------14--------------------------------------------|
E|---------------------------------------------------------------------------|

Comments: My first tab um I just wanted to tab this song cause they didn't have it
Tap to rate this tab
 
# A B C D E F G H I J K L M N O P Q R S T U V W X Y Z