Song name
# A B C D E F G H I J K L M N O P Q R S T U V W X Y Z

Fort Minor - Scom tab

Hook:

|--------------15----14-----|--------------15----14-----|
|-----15--------------------|-----15--------------------|
|--------14-12----14----14--|--------14-12----14----14--|
|--12-----------------------|--12-----------------------|
|---------------------------|---------------------------|
|---------------------------|---------------------------|

|--------------15----14-----|--------------15----14-----|
|-----15--------------------|-----15--------------------|
|--------14-12----14----14--|--------14-12----14----14--|
|--12-----------------------|--12-----------------------|
|---------------------------|---------------------------|
|---------------------------|---------------------------|
                            
|--------------15----14-----|--------------15----14-----|
|-----15--------------------|-----15--------------------|
|--------14-12----------14--|--------14-12----------14--|
|--14-----------------------|--14-----------------------|
|---------------------------|---------------------------|
|---------------------------|---------------------------|

|-------------15----14----|-------------15----14----|
|----15-------------------|----15-------------------|
|-12----14-12----14----14-|-12----14-12----14----14-|
|-------------------------|-------------------------|
|-------------------------|-------------------------|
|-------------------------|-------------------------|

This song is a sample of Guns N Roses "Sweet Child 'O Mine"
Just keep playing it over and over.

 
Tap to rate this tab
 
# A B C D E F G H I J K L M N O P Q R S T U V W X Y Z