Song name
# A B C D E F G H I J K L M N O P Q R S T U V W X Y Z

Fort Minor - Wered You Go tab

Fort Minor Featuring Holly Brook
"Where'd You Go?"

PIANO

Intro/Verse/Chorus

E|---0---0---0---0|---0---0---0---0|---0---0---0---0|---0---0---0---0|
B|-9---9---9---9--|-7---7---7---7--|-9---9---9---9--|-7---7---7---7--|
G|----------------|----------------|----------------|----------------|
D|----------------|----------------|----------------|----------------|
A|-7--------------|----------------|----------------|----------------|
E|----------------|-7--------------|-9--------------|-5--------------|

Solo

E|---------------------------------|---------------------------------|
B|---9---9-10-7---7---9---7--------|---9---9-10-7---9----------------|
G|-9---9--------9---9---9---9------|-9---9--------9---9--------------|
D|---------------------------------|---------------------------------|
A|---------------------------------|---------------------------------|
E|---------------------------------|---------------------------------|

OPTIONAL

Guitar

E|----------------|----------------|----------------|----------------|
B|----------------|----------------|----------------|----------------|
G|-9-9-9-9-9-9-9-9|-9-9-9-9-9-9-9-9|-9-9-9-9-9-9-9-9|-9-9-9-9-9-9-9-9|
D|-9-9-9-9-9-9-9-9|-9-9-9-9-9-9-9-9|-9-9-9-9-9-9-9-9|-9-9-9-9-9-9-9-9|
A|-7-7-7-7-7-7-7-7|----------------|----------------|----------------|
E|----------------|-7-7-7-7-7-7-7-7|-9-9-9-9-9-9-9-9|-5-5-5-5-5-5-5-5|

Bass

E|----------------|----------------|----------------|----------------|
B|----------------|----------------|----------------|----------------|
G|----------------|----------------|----------------|----------------|
D|----------------|----------------|----------------|----------------|
A|-7--------------|----------------|----------------|----------------|
E|----------------|-7--------------|-9--------------|-5--------------|
Tap to rate this tab
# A B C D E F G H I J K L M N O P Q R S T U V W X Y Z