Song name
# A B C D E F G H I J K L M N O P Q R S T U V W X Y Z

Fort Minor - All Night tab

if theres any problems or comments then e-mail me at zoastev@yahoo.com
give it a chance if it looks hard eventually you'll get it


All Night
Fort Minor
Fort Minor - We Major mixtape


intro:
|------------------------------------|
|-55555555-------3--3--3-3-3-3-------|
|-77777777-------0--0--2-0-0-2-------|
|-77777777-------x--x--0-x-x-0-------|
|-00000000-------3--2--0-3-2-0-------|
|------------------------------------|

|----------------------------3--------------------|
|----------------------------3---------3-----------
|-----9---------7------------0---------5----------|
|-----9---------7------------2---------5----------|
|-----7---------5------------0---------0----------|
|-----0---------0---------------------------------|


verse:

|------------------------------------|
|---3--3--3-3-3-3--------------------|
|---0--0--2-0-0-2--------------------|
|---x--x--0-x-x-0--------------------|
|---3--2--0-3-2-0--------------------|
|------------------------------------|

|----------------------------3--------------------|
|----------------------------3---------3----------|
|-----9---------7------------0---------5----------|
|-----9---------7------------2---------5----------|
|-----7---------5------------0---------0----------|
|-----0---------0---------------------------------|

thats basicly it just listen to the song and follow along and you'll get it
does this sound famialier? its part of Tom Sawyer from Rush  


Tap to rate this tab
# A B C D E F G H I J K L M N O P Q R S T U V W X Y Z