Song name
# A B C D E F G H I J K L M N O P Q R S T U V W X Y Z

Fortune Drive - To The Rye tab

Standard Tuning.

Band Name:Fortune Drive
Song:To The Rye
Album:A Modern Question

basic version of the intro is along the lines off......

Part 1
e---------------------------------------------|
b---------------------------------------------|
g---------7---5-7--5-7--5-7-101010------------|   X4
d---------7---5-7--5-7--5-7-101010------------|
a---------5---3-5--3-5--3-5-8-8-8-------------|
E---------------------------------------------|

Part 2
e---------------------------------------------|
b---------------------------------------------|
g---------------------------------------------|
d------10101010-9-9-9-9-----------------------|
a------8-8-8-8--7-7-7-7-----------------------|
E---------------------------------------------|

Part 3 with bassline
e---------------------------------------------|
b---------------------------------------------|
g---------------------------------------------|
d---------------------------------------------|
a-----33-22-33-55-66-22-33--------------------|
E---------------------------------------------|

Then the guitarist gets a bit experimental with the pedals!
Best song i've seen performed Live!!!

check out there myspace...www.myspace.com/fortunedrive
www.fortunedrive.com/
Tap to rate this tab
# A B C D E F G H I J K L M N O P Q R S T U V W X Y Z