Song name
# A B C D E F G H I J K L M N O P Q R S T U V W X Y Z

Forward Area - America tab

                             Forward Area
                              "America"
                        Hate Punk in your Face

Forward Area is not popular, but they are signed to a record label. It's either
Records, or the NSM's label, or something like those. They used to have their own domain site,
now they don't. They don't make a SHITLOAD from CDs and other things, so they still have 
work and conserve money. Here's the link to one of their pages: 
http://nazipunk.8k.com/forwardarea.html

Get over the fact that they're national socialist. You can't deny a tab based on the
beliefs.

Here's a link to the song: http://www.youtube.com/watch?v=5Bx5aB-k-kE
It's the second song that plays.


                                  KEY:

                 = - hold/let ring, . - Palm Mute


INTRO (PLAYED TWICE)
-----------     -----------|
-----------     -----------|
----------- (x4)-----------| (x4)
-------5---     -------3---|
-----5---5-     -----3---3-|
---3-------     ---1-------|
   . . . .         . . . .

INTRO PT.2
----------     -----------------|
----------     -----------------|
---------- (x3)-----------------|
---5-5===-     ---5--5--5-5-5-5-|
---5-5===-     ---5--5--5-5-5-5-|
---3-3===-     ---3--3--3-3-3-3-|

VERSE
-----------------------------------------------------------------------------|
-----------------------------------------------------------------------------|
----------------------------------------6-6-6--66-6666666--------------------|
---5-5-5--55-5555555-8-5-5--55-5555555--6-6-6--66-6666666--3-3-3--33-3333333-|
---5-5-5--55-5555555-8-5-5--55-5555555--4-4-4--44-4444444--3-3-3--33-3333333-|
---3-3-3--33-3333333-6-3-3--33-3333333---------------------1-1-1--11-1111111-|

CHORUS
--------------------|
--------------------|
--------------------|
---5-555555--5-3-3--|
---5-555555--5-3-3--|
---3-333333--3-1-1--|
     ......

END
------------|
------------|
------------|
---5=======-|
---5=======-|
---3=======-|
Tap to rate this tab
# A B C D E F G H I J K L M N O P Q R S T U V W X Y Z