Song name
# A B C D E F G H I J K L M N O P Q R S T U V W X Y Z

Forward Russia - Eighteen tab

----------------------------------------------------------------------------
			     Eighteen Intro - Ben Kenney
----------------------------------------------------------------------------
Tabbed by: Niscimble
Email: peteypablo2131@yahoo.com

This song is kind of hard to figure out, so I am going to post what I know
for now and post the rest once I get it down.

Tuning:  Standard

e|---------------------------------------------------|
B|---------------------------------------------------|
G|--------7------------------------------------------|  x4
D|-----5-----------4--------4--------4--------4------|
A|--7-----------5--------5--------5--------5---------|
E|-----------7--------2--------4--------3------------|



| /  slide up
| \  slide down
| h  hammer-on
| p  pull-off
| ~  vibrato
| +  harmonic
| x  Mute note
============================================================================
Tap to rate this tab
# A B C D E F G H I J K L M N O P Q R S T U V W X Y Z