Song name
# A B C D E F G H I J K L M N O P Q R S T U V W X Y Z

Fossils - Aeka Nauo tab

***************************************
Song  - Aeka Nauo
Band  - Fossils
Album - Mission F
***************************************
Tabbed by Rohan Dasgupta
E-Mail - rohanzdomain@gmail.com
***************************************
Intro Riff:

	|---1-1--3-3----------------------------------e
	|---1-1--3-3----0---------0---------0---------B
	|---2-2--4-4--5---5-----5---5-----5---5-------G
	|---3-3--5-5--------7---------7---------7-----D
	|---3-3--5-5----------7---------7---------7---A
	|---1-1--3-3----------------------------------E

Verse1:

	|-------------------------e
	|-----0---------0---------B
	|---5---5-----5---5-------G
	|---------7---------7-----D
	|-----------7---------7---A
	|-------------------------E
	     Tomar aeka thaka

	|---1-1--3-3--------------e
	|---1-1--3-3----0---------B
	|---2-2--4-4--5---5-------G 
	|---3-3--5-5--------7-----D
	|---3-3--5-5----------7---A
	|---1-1--3-3--------------E
	     Thaka nirbashone

	|-------------------------e
	|-----0---------0---------B
	|---7---7-----7---7-------G
	|---------9---------9-----D
	|-----------9---------9---A
	|-------------------------E
	     Nirjatito tumi

	|---1-1--3-3--------------e
	|---1-1--3-3----0---------B
	|---2-2--4-4--5---5-------G 
	|---3-3--5-5--------7-----D
	|---3-3--5-5----------7---A
	|---1-1--3-3--------------E
	     Bondi dehe mone

	|-------------------------e
	|-----0---------0---------B
	|---5---5-----5---5-------G
	|---------7---------7-----D
	|-----------7---------7---A
	|-------------------------E
	     Shongi kanna tomar
	
	|---1-1--3-3--------------e
	|---1-1--3-3----0---------B
	|---2-2--4-4--5---5-------G 
	|---3-3--5-5--------7-----D
	|---3-3--5-5----------7---A
	|---1-1--3-3--------------E
	     Shitol ghorer kone

	|-------------------------e
	|-----0---------0---------B
	|---7---7-----7---7-------G
	|---------9---------9-----D
	|-----------9---------9---A
	|-------------------------E
	     Positive ongikar

	|---1-1--3-3--------------e
	|---1-1--3-3----0---------B
	|---2-2--4-4--5---5-------G 
	|---3-3--5-5--------7-----D
	|---3-3--5-5----------7---A
	|---1-1--3-3--------------E
             Tobu uchcharone

Bridge:

Gm        F
Kon doshe hoyna bichar
A#        C
Tobu jabojjibon
Gm        F
Kon doshe shohanubhutir
A#                C
Namey shudhu prohoshon
Gm             F
Shorir-er bhag shorir bhoge
A#               C
Taro beshi bhoge mon
Gm       F
Kon bhoy HIV-r
A#                     C
Nishidhdho (hoy) uchcharon

Chorus:

C         F        C
Ashukh-ke shamajik obhishap
       Am       G
Baniye ki shukh bolo?
C	       F
Shomaj-i shesh hobe
C               Am   G
Emon bhabe Jodi ulto cholo
C            F
Jene nao ... Bujhe nao
C                  Am    G
Bachte dao ... Aar bacho nije
C              F
Bhalobasho ... Kachhe esho
C                           Am    G
Pran khule hasho ... Hridoy uthik bhije

The rest of the song are on the same chords.

***************************************one of the a 
Tap to rate this tab
# A B C D E F G H I J K L M N O P Q R S T U V W X Y Z