Foster The People - Pumped Up Kicks tab

Intro

e|-------------------------------------|
b|-------------------------------------|
g|-------------------------------------|
D|-----------------1-1-----------------|
A|-------------1-3-----3---1-1-1-3-----|
E|-1-1-1-3-4-4-----------4---------4---|
   . . . . . . . . . . . . . . . . .

e|-------------------------------------|
b|-------------------------------------|
g|-------------------------------3-3---|
D|-----------------1-1-----------x-x-6-|
A|-------------1-3-----3-1-3-1-1-1-1-x-|
E|-1-1-1-3-4-4-----------------------4-|
   . . . . . . . . . . . . . . . . . .

Then this repeats the rest of the song

e|-------------------------------------|
b|-------------------------------------|
g|-------------------------------------|
D|-----------------1-1-----------------|
A|-------------1-3-----3---1-1-1-3-----|
E|-1-1-1-3-4-4-----------4---------4---|
   . . . . . . . . . . . . . . . . .

e|-------------------------------------|
b|-------------------------------------|
g|-------------------------------------|
D|-----------------1-1-----------------|
A|-------------1-3-----3-1-3-1-1-1-1---|
E|-1-1-1-3-4-4-----------------------4-|
   . . . . . . . . . . . . . . . . . .
Tap to rate this tab
 
# A B C D E F G H I J K L M N O P Q R S T U V W X Y Z