Song name
# A B C D E F G H I J K L M N O P Q R S T U V W X Y Z

Foster The People - Helena Beat tab

Hey guys! Very new here. My account got locked because I forgot my password (fail), My 
User is StevenB.
This is one of my fave songs from Foster The People and I needed to post this tab as 
soon as!

Not that hard to play, just gotta get the timings right, these are roughly the correct 
amount of strums on each note.
Feel free to message me about any of the tabs I'll be posting! :)

e|-------------------------------------|
b|-------------------------------------|
g|-------------------------------------|
D|-------------------------------------|
A|-----------------4/6-6-6-6-6-6-6-6---|
E|-1-1-1-1-1-1-3-3---------------------|

e|-------------------------------------|
b|-------------------------------------|
g|-------------------------------------|
D|-------------------------5h6p5-------|
A|-----------------3-3-3-3------6------|
E|-4-4-4-4-6-6-6-6---------------------|
Tap to rate this tab
 
# A B C D E F G H I J K L M N O P Q R S T U V W X Y Z