Song name
# A B C D E F G H I J K L M N O P Q R S T U V W X Y Z

Foster The People - Pumped Up Kicks Acoustic tab

Band: Foster The People
Song: Pumped up Kicks
Album: Torches
Tab Author: Whitey

Tunning: Standard (EADgbe)
Capo: 7th

This is a acoustic version, Tabbed from:
http://www.youtube.com/watch?v=maZuT3uR-gM
but all live acoustic versions seem very similiar

The Chords

e|---0----3---2---0------------------------|
b|---0----3---3---2------------------------|
g|---0----0---2---2------------------------|
D|---2----0---0---2------------------------|
A|---2----2-------0------------------------|
E|---0----3--------------------------------|

Strumming pattern isnt too hard to pick up, there is a slow strum of the individual chords too.

There is a few small fills,

#1
e|----------------------------------|
b|----------------------------------|
g|----------------------------------|
D|-----------------1-1-1------------|
A|---------------3-------3-1-1-1-3--|
E|-1-1-1-3-4-4-4--------------------|

#2
e|-----------------------------------------------|
b|-----------------------------------------------|
g|------------------------------4----------------|
D|----------------------3---5----5-3-3h5p3-------|
A|-3-3-3-6-6-6-6---------------------------------|
E|-----------------------------------------------|

In part #1 somtimes it doesnt really fit so i play this, sounds pretty nice

#3
e|--------------------------------------------------|
b|--------------------------------------------------|
g|--------------------------------------------------|
D|--------------------------------------------------|
A|------------------------------5--5-5--------------|
E|-0---0--0--0-2-3--3--3--3-5/7--------7-5--5-5-3-5-|


BASS TAB
Tunning:Standard

G |-----------------------------------------------|
D |-----------------------------------------------|
A |-----------------------6--6--6-----------------|
E |--1--1--1-3--4--4--6-8---------8--6--6--6-4-6--|

G |-------------------------------------------------|
D |-------------------------------------------------|
A |-----------------------6--6--6h8p6---------------|
E |--1--1--1-3--4--4--6-8------------8p6--6--6h8p6-4|

| /  slide up
| \  slide down
| h  hammer-on
| p  pull-off
| ~  vibrato
| +  harmonic
| x  Mute note

First tab so go easy if mistakes, enjoy feel free to redo.
Tap to rate this tab
 
# A B C D E F G H I J K L M N O P Q R S T U V W X Y Z