Song name
# A B C D E F G H I J K L M N O P Q R S T U V W X Y Z

Foster The People - Pumped Up Kicks tab

Guitar 1:
e|-----------------------------------|
b|-----------------------------------|
g|-----------------------------------|
D|-----------------1-1-1-------------|
A|---------------3-------3-1-1-1-----|
E|-1-1-1-3-4-4-4-----------------3-1-|

e|---------------------------------------------|
b|---------------------------------------------|
g|---------------------------------------------|
D|-----------------1-1-1h3p1-------------------|
A|---------------3----------3-1-1-1-1h3p1------|
E|-1-1-1-3-4-4-4-------------------------3-1---| 

Repeat.

by Mess
Tap to rate this tab
# A B C D E F G H I J K L M N O P Q R S T U V W X Y Z