Song name
# A B C D E F G H I J K L M N O P Q R S T U V W X Y Z

Foster The People - Helena Beat tab

-----------------------------------------------------------------------------
			     Helena Beat- Foster The People
-----------------------------------------------------------------------------
Tabbed by:Canyon Hopkins
Email: JTHM1234@yahoo.com
OK so this is the actual chords for the song. I actually watched them live and this is
it exactly. That is it. STRUM ALL THE STRING (i just found adding the 0 pointless. Here
is the link to the video i took this from (http://www.youtube.com/watch?v=yMs6X3BY3Gg) 
listen to it for beat and help with strumming.
 D= Downstroke U= Upstroke
Tuning: STANDARD

     D   D   D   D   D   D   U   U   D   D   D   D   D   D   U   U
e|-------------------------------------------------------3---3---3-|
B|-------------------3---3---3---3---3---1---1---3---3-------------|
G|-------------------------------------------------------4---4---4-|
D|---5---5---5---7---4---4---4---4---4---2---2---4---4---5---5---5-|
A|---7---7---7---9---5---5---5---5---5---3---3---5---5---5---5---5-|
E|---7---7---7---9---5---5---5---5---5---3---3---5---5-------------|              REPEAT
WHOLE SONG

CHORUS:
e|-------------|
B|-------------|
G|-------------|
D|---5---5---5-|
A|---7---7---7-|
E|---7---7---7-|          REPEAT THAT PART BUT FASTER!!!
Tap to rate this tab
# A B C D E F G H I J K L M N O P Q R S T U V W X Y Z