Song name
# A B C D E F G H I J K L M N O P Q R S T U V W X Y Z

Foster The People - Dont Stop Color On The Walls tab

#----------------------------------PLEASE NOTE--------------------------------#
#This file is the author's own work and represents their interpretation of the#
#song. You may only use this file for private study, scholarship, or research.#
#-----------------------------------------------------------------------------#
#-- File created with Instab - http://www.pconline.com/~smcarey/instab.html --#
#-----------------------------------------------------------------------------#

Author/Artist: Foster The People
Title: Don't Stop

Standard Tuning


-------|----|---x---x--|--|-------x---x---x-------x---x---x-----|-------------|
-------|----|---4---4--|--|-------2---2---2-------3---5---5-----|-------------|
-------|----|-x-4---4--|--|-x-x---2-x-2---2-x-x---4-x-6---6-x-x-|-------------|
-------|-4--|-x---4----|3x|-x-x-2---x---2---x-x-5---x---7---x-x-|-------------|
-------|-2--|-----2----|--|-----0-------0-------x-------x-------|-------------|
-------|-x--|-----x----|--|-----x-------x-------3-------5-------|-------------|
        Main Riff

-------|---------|--|---------|-----------------------------------------------|
-------|---------|--|---------|-----------------------------------------------|
-------|---4-x-x-|--|---2-x-x-|-----------------------------------------------|
-------|-4-4-x-x-|3x|-2-2-x-x-|-----------------------------------------------|
-------|-2-------|--|-0-------|-----------------------------------------------|
-------|-x-------|--|-x-------|-----------------------------------------------|
        Chorus
Tap to rate this tab
# A B C D E F G H I J K L M N O P Q R S T U V W X Y Z