Song name
# A B C D E F G H I J K L M N O P Q R S T U V W X Y Z

Foster The People - Houdini tab

Tab by: Kenny Aral
Its much easier to play this version on an acoustic, 
especially if its not a cutaway. Listen to the song
for the timing. Enjoy!

CAPO 3
Tab relative to capo
h: hammer
p: pull-off

e|5---5-5--5-5--3--3--1--1--|-0---0-0--0-0--------1h3--|
B|--------------------------|---------------3--3-------|
G|--------------------------|--------------------------|
D|--------------------------|--------------------------|
A|--------------------------|--------------------------|
E|--------------------------|--------------------------|


e|0---0-0--0-0--------0h1---|-0---0-0--0-0--------3p1--|
B|--------------3--3--------|---------------3--3-------|
G|--------------------------|--------------------------|
D|--------------------------|--------------------------|
A|--------------------------|--------------------------|
E|--------------------------|--------------------------|
Tap to rate this tab
 
# A B C D E F G H I J K L M N O P Q R S T U V W X Y Z