Song name
# A B C D E F G H I J K L M N O P Q R S T U V W X Y Z

Foster The People - I Would Do Anything For You tab

-------------------------------------------------------------------------------
              I Would Do Anything for You - Foster the People
-------------------------------------------------------------------------------
Tabbed by: Zack Perez
E-mail: zacksfansite@gmail.com

Tuning: Standard

This is the piano solo tabbed out for guitar.

e |----------------------------------------------------|
B |----------------------------------------------------|
G |--------------------10----9-----7-------------------|
D |--------------10-------------------10---------------|
A |--------7--8-----------------------------10----8----|
E |--8--10---------------------------------------------|

e |----------------------------------------------------|
B |----------------------------------------------------|
G |-----7--------------------7-------------------------|
D |--------10----7-----------------10-7----------------|
A |--------------------8--------------------8----------|
E |-----------------------------------------------8----|


e |----------------------------------------------------|
B |----------------------------------------------------|
G |--------------------10.---9-----7-------------------|
D |--------------10-------------------10---------------|
A |--------7--8-----------------------------10----8----|
E |-----10---------------------------------------------|


e |----------------------------------------------------|
B |----------------------------------------------------|
G |-----7--------------------7-------------------------|
D |--------10----7-----------------10-7----------------|
A |--------------------8--------------------8----------|
E |-----------------------------------------------8----|

************************************

| /   slide up
| \   slide down
| h   hammer-on
| p   pull-off
| ~   vibrato
| +   harmonic
| x   Mute note
| b   Bend
| pb  Pre-bend
| br  Bend release
| pbr Pre-bend release
| brb Bend release bend

************************************
Tap to rate this tab
# A B C D E F G H I J K L M N O P Q R S T U V W X Y Z