Song name
# A B C D E F G H I J K L M N O P Q R S T U V W X Y Z

Foster The People - Pumped Up Kicks Song tab

CAPO 1
VERSE:
E|-------------------------------------------------------------|
B|--0--------------0-------0--------------------0--------------|
G|-----2--2--0--2-------2-----2--2--2--2-----2-----2--2--2-----|
D|----------------------------------------4--------------------|
A|-------------------------------------------------------------|
E|-------------------------------------------------------------|



E|-------------------------------------------------------|
B|--0--------------2--0-------------------------0--------|
G|-----2--2--0--2----------2--2--2--2--2-----2-----2--2--|
D|----------------------------------------4--------------|
A|-------------------------------------------------------|
E|-------------------------------------------------------|



E|-------------------------------------------------------------------|
B|-----0--------------0-------------------------------0--------------|
G|--2-----2--2--2--2-------------2--2--2-----------2-----2--2--2-----|
D|-------------------------0--0-----------4--4--4--------------------|
A|-------------------------------------------------------------------|
E|-------------------------------------------------------------------|



E|-------------------------------------------------------------|
B|--0--------------2--0----------------------------0-----------|
G|-----2--2--0--2----------------2--2--2--2-----2-----2--2--2--|
D|-------------------------0--0--------------4-----------------|
A|-------------------------------------------------------------|
E|-------------------------------------------------------------|


CHORUS:
E|--2--0--0--------------------------------------------0--0--2--0--|
B|-----------3--3--0-----3--3--3--0--0-----3--3--3--3--------------|
G|--------------------2-----------------2--------------------------|
D|-----------------------------------------------------------------|
A|-----------------------------------------------------------------|
E|-----------------------------------------------------------------|



E|--2--0--0--------------------------------------------0--0--0--2--0-----|
B|-----------3--3--0-----3--3--3--0--0-----3--3--3--3-----------------3--|
G|--------------------2-----------------2--------------------------------|
D|-----------------------------------------------------------------------|
A|-----------------------------------------------------------------------|
E|-----------------------------------------------------------------------|
Tap to rate this tab
# A B C D E F G H I J K L M N O P Q R S T U V W X Y Z