Song name
# A B C D E F G H I J K L M N O P Q R S T U V W X Y Z

Foster The People - Houdini Acoustic tab

Tabbed by: Aleks K

-Intro/Verse-
e|-----------------------------2--------------------------------------------|
B|------3----------0---0---------3-----2h3-3--------------------------------|
G|--------4--------0---0------2---------------------------------------------|
D|----4--------------------0-----------2---2--------------------------------|
A|--2-------------------------------0---------------------------------------|
E|---------------2---3------------------------------------------------------|

e|-----------------------------2--------------------------------------------|
B|------3----------0---0---------3-----2h3-3--------------------------------|
G|--------4--------0---0------2---------------------------------------------|
D|----4--------------------0-----------2---2--------------------------------|
A|--2-------------------------------0---------------------------------------|
E|---------------2---3------------------------------------------------------|

-Chorus-
e|---------2----------------------------------------------|
B|-------3--------3---3------3-------3--------------------|
G|-----2-----2----2---2--------3--------------------------|
D|---0----------0----------3------------------------------|
A|------------------0----1---------1---s3-----------------|
E|--------------------------------------------------------|

-Bridge-
e|--------------------------------------|
B|--------------------------------------|
G|------0----0----------2-----2---------|
D|-----0-0-------------2--2-------------|
A|-------------------0------0-----------|
E|---3-----3----2---------------2-------|

Song Order
----------
-Intro
-Verse
-Chorus
-Verse
-Chorus
-Verse
-Bridge
-Verse
Tap to rate this tab
# A B C D E F G H I J K L M N O P Q R S T U V W X Y Z