Song name
# A B C D E F G H I J K L M N O P Q R S T U V W X Y Z

Foster The People - Nevermind tab

-------------------------------------------------------------------------------
                              NEVERMIND - Foster The People
-------------------------------------------------------------------------------
My video lesson: https://www.youtube.com/watch?v=p_7djfG_TOU
Tuning: eBGDAE

Intro/Verse/Chorus
e|----7---7----5---5--------4---4-----4---4-------5---5-----4---4-------4---4-----2---2------|
B|----5---5----5---5--------5---5-----5---5-------5---5-----5---5-------5---5-----2---2------|
G|-6----6---5----5---5---4----4----6----6---6--5----5----4----4---4--3----3----2----2---2/---|
D|-------------------------------------------------------------------------------------------|
A|-------------------------------------------------------------------------------------------|
E|-------------------------------------------------------------------------------------------|

Outro
e|------------------------------------------4------------------------4-------------------------------|
B|----5---5----5---7p5--------5---5-----5-----5---5----5---5-----5-----5---5-----5---5-----4---5p4---|
G|-6----6---5----5-----5---4----4----6----6-----6---5----5----4----4-----4----3----3----2----2-----2-|
D|---------------------------------------------------------------------------------------------------|
A|---------------------------------------------------------------------------------------------------|
E|---------------------------------------------------------------------------------------------------|
Tap to rate this tab
 
# A B C D E F G H I J K L M N O P Q R S T U V W X Y Z