Song name
# A B C D E F G H I J K L M N O P Q R S T U V W X Y Z

Foster The People - Nevermind tab

Foster the People - Nevermind Intro
Tabbed by Arman Dezfuli-Arjomandi
arman@rawrmaan.com

This riff repeats through most of the song. Super catchy and fun to play. Enjoy!

E|----7----7-----5----5--------4----4-----4----4--------5----5-|
B|----5----5-----5----5--------5----5-----5----5--------5----5-|
G|-6-----6----5-----5----5--4-----4----7-----7----7--5-----5---|
D|-------------------------------------------------------------|
A|-------------------------------------------------------------|
E|-------------------------------------------------------------|

E|----4----4--------4----4-----2----2----|
B|----5----5--------5----5-----2----2----|
G|-4-----4----4--3-----3----2-----2----2-|
D|---------------------------------------|
A|---------------------------------------|
E|---------------------------------------|
Tap to rate this tab
 
# A B C D E F G H I J K L M N O P Q R S T U V W X Y Z