Song name
# A B C D E F G H I J K L M N O P Q R S T U V W X Y Z

Foster The People - Coming Of Age tab

-----------------------------------------------------------------------------
Coming of Age – Foster the People
-----------------------------------------------------------------------------


Tabbed by: Elzephor

Tuning: Standard



Main Riff: 

    F             Bb    Am  Bb   Eb     Dm Eb    Bb
e|---------------------------------------------------------------------------
B|--10-10-13-10----15-15-13-15---8---8-8-6-8---8/15-15-----------------------
G|--10-10-10-10----15-15-14-15---8---8-8-7-8---8/15-15-----------------------
D|--10-10-10-10----15-15(14)15---8---8-8(7)8---8/15-15-----------------------
A|-(8)(8)(8)(8)--------------------------------------------------------------
E|---------------------------------------------------------------------------




************************************

| /   slide up
| \   slide down
| h   hammer-on
| p   pull-off
| ~   vibrato
| +   harmonic
| x   Mute note
| b   Bend
| pb  Pre-bend
| br  Bend release
| pbr Pre-bend release
| brb Bend release bend

************************************
Tap to rate this tab
# A B C D E F G H I J K L M N O P Q R S T U V W X Y Z