Song name
# A B C D E F G H I J K L M N O P Q R S T U V W X Y Z

Foster The People - Coming Of Age tab

I tried spacing the parts out correctly, but listen to the song and you should get the 
feel to it.


E|----------------------------10--------------13----------10--13--|
B|----------13--------10--11----------------------13--11----------|
G|--12--10------------------------12------------------------------|
D|----------------------------------------------------------------|
A|----------------------------------------------------------------|
E|----------------------------------------------------------------|


E|----------10------------------10--------------------15--15--13--|
B|--13--13------10------13--11------------------------------------|
G|------------------10--------------12----------------------------|
D|----------------------------------------------------------------|
A|----------------------------------------------------------------|
Tap to rate this tab
 
# A B C D E F G H I J K L M N O P Q R S T U V W X Y Z