Guitaretab - guitar tabs
Song name
# A B C D E F G H I J K L M N O P Q R S T U V W X Y Z

Fotos - Remmidemmi tab

REMMIDEMMI BY FOTOS
__________________________

TABED BY -MOE-
__________________________



INTRO+VERSE
E|-------------------------------------|
B|-------------------------------------|
G|-------------------------------------|
D|-2-1-2-1-2-5-2-1-2-1-2-5-2-1-2-1-2-5-|
A|-2-1-2-1-2-5-2-1-2-1-2-5-2-1-2-1-2-5-|           
D|-2-1-2-1-2-5-2-1-2-1-2-5-2-1-2-1-2-5-|  


CHORUS GUITAR 1
E|------------------|
B|------------12----|
G|-9-12-9-12------12|
D|------------------|
A|------------------|           
D|------------------|  
[ Tab from: http://www.guitaretab.com/f/fotos/112497.html ]
CHORUS GUITAR 2
E|--------------------------------------------------------------------------|
B|-----------------------------------------------13--12--13--12--13--12--13-|
G|-12-11--12-11--12-11--12-11--12-11--12-11--12--12--11--12--11--12--11--12-|
D|-12-11--12-11--12-11--12-11--12-11--12-11--12--10---9--10---9--10---9--10-|
A|-10--9--10--9--10--9--10--9--10--9--10--9--10-----------------------------|           
D|--------------------------------------------------------------------------|  


AFTER SECOND VERSE 1x
E|------------------|
B|------------------|
G|------------------|
D|-------5----------|
A|-6-7-6---6-7------|           
D|------------------|  

BRIDGE 1
E|-------------------------------------|
B|--8-8-8-8-8-8-8-8-7-7-7-7-7-7-7-7----|
G|--7-7-7-7-7-7-7-7-6-6-6-6-6-6-6-6----|
D|--5-5-5-5-5-5-5-5-4-4-4-4-4-4-4-4----|
A|-------------------------------------|           
D|-------------------------------------| 



BRIDGE 2

E|------------------|
B|------------12----|
G|-9-12-9-12------12|
D|------------------|
A|------------4-----|           
D|-2--5-2--5-------5| 


Es ist mein erster Tab, bin also nicht sicher ob alles richtig ist. 


http://www.fotosmusik.de/
Related for Remmidemmi tab