Song name
# A B C D E F G H I J K L M N O P Q R S T U V W X Y Z

Fotos - Serenaden tab

I just tabbed the intro and verse of guitar 1 (deniz), enjoy! :) 

Intro

E |-11-11-11-11-11-11-11-11-13-9-11-------------------------13-9-13----|
H |---------------------------------11-11-11-11-11-11-11-11------------|
G |--------------------------------------------------------------------|     
D |--------------------------------------------------------------------|
A |--------------------------------------------------------------------|
E |--------------------------------------------------------------------|


E |-11-11-11-11-11-11-11-11-13-9-11-------------------------13-9-11----|
H |---------------------------------11-11-11-11-11-11-11-11---------11-|
G |--------------------------------------------------------------------|     
D |--------------------------------------------------------------------|
A |--------------------------------------------------------------------|
E |--------------------------------------------------------------------|


Verse


E |-13-9-11--11-11-11-11-11-11-11-13-9-11------------------------13-9--|
H |--------11-----------------------------11-11-11-11-11-11-11-11----11|
G |--------------------------------------------------------------------|     
D |--------------------------------------------------------------------|
A |--------------------------------------------------------------------|
E |--------------------------------------------------------------------|



E |-8-8-8-8-8-8-8-8-13-9-----------------------------------------------|
H |---------------------11---------------------------------------------|
G |--------------------------------------------------------------------|     
D |--------------------------------------------------------------------|
A |--------------------------------------------------------------------|
E |--------------------------------------------------------------------|



Tap to rate this tab
# A B C D E F G H I J K L M N O P Q R S T U V W X Y Z