Song name
# A B C D E F G H I J K L M N O P Q R S T U V W X Y Z

Foundations - Build Me Up Buttercup chords

Highlighted       Show chord diagrams
Hey all, hope this helps... TTT


CHORUS
|C | E7 | F | G | x2
|C | C7 | F |Fm |C | G | 
C | nc |G|

(2nd last bar run down F Em Dm C quickly or just play bass notes below)

G|---------------------------|
D|--3-2-0--------------------|
A|--------3------------------|
E|------------3-3-3-3-3-3-3--| <-gallop this bit

VERSE
|C G |Bb F| C | G |

PRE CHORUS (hey hey hey bit)
|Dm7|G|E7|Am7|F|D7|G|

Bass bit too (just a guide to help, this isn't how these sit in the bars,
just a visual aid)

     Dm7      G        E7       Am7       F 
       D7         G
E|-----1-1-1-1-3-3|-----0-0-0-0--0-0-|-----1-1-1-1--2-2-2-2--|-3-3-3-3-|
B|-----1-1-1-1-3-3|-----3-3-3-3--1-1-|-----1-1-1-1--1-1-1-1--|-3-3-3-3-|
G|-----2-2-2-2-0-0|-----1-1-1-1--0-0-|-----2-2-2-2--2-2-2-2--|-0-0-0-0-|
D|-3-2-0-0-0-0-0-0|-0-1-2-2-2-2--2-2-|-0-2-3-3-3-3--0-0-0-0--|-0-0-0-0-|
A|-------------2-2|--------------0-0-|-----------------------|-2-2-2-2-|
E|-------------3-3|------------------|-----------------------|-3-3-3-3-|

If you're not sure of the rhythm, just strum 4x per bar (4 for a 1 chord bar
and 2 each for a shared bar) or just follow the hihat and accent as the
snare/kick drum sounds. Bear in mind it's a shuffle, so its short note/long
note/short note/long note etc.

For hatemail/corrections/comments or a request for a transcription mail me
on moozic@hotmail.co.uk
Tap to rate this tab
 
# A B C D E F G H I J K L M N O P Q R S T U V W X Y Z