Guitaretab - guitar tabs
Song name
# A B C D E F G H I J K L M N O P Q R S T U V W X Y Z

Fountains Of Wayne - Staceys Mom tab

Staceys Mom by Fountains Of Wayne

/ = Slide
b = Bend


~Intro and Verse~ 
|-----------------------------------------|
|-----------------------------------------|
|------------------------------------0----|
|----------2-2-2-2-2----1-2--2-2-2-2-2----|
|---2-2-2--0-0-0-0-0--2------0-0-0-0-0----|
|---0-0-0---------------------------------|
 [____________________________________]
           Palm Muted



~Bridge ~
|-------------------------------------------------------------------|
|-------------------------------------------------------------------|
|-------------------------------------------------------------------|
|-------------------------------------------------------------------|
|---6-6-6-6-6-6-6-6-6-6-7-7-7-7-7-7-7-7-6-6-6-6-6-6-6-6-7-7-7-7-7---|
|---4-4-4-4-4-4-4-4-4-4-5-5-5-5-5-5-5-5-4-4-4-4-4-4-4-4-5-5-5-5-5---|
  [____________________________________________________]
                         Palm Muted



~Chorus~ 
|-----------------------------------------|
|-----------------------------------------|
|-----------------------------------------|
|---2-2-2--------4-4-4-4-4/6-6------------|
|---0-0-0-2-2-2--2-2-2-2-2/4-4------------|
|---------0-0-0---------------------------|  (x2)
[ Tab from: http://www.guitaretab.com/f/fountains-of-wayne/105547.html ]
|-----------------------------------------------------------------------|
|-----------------------------------------------------------------------|
|-----------------------------------------------------------------------|
|---2-2-2--------5-5-5-5-5/6-6------------------------------------------|
|---0-0-0-2-2-2--3-3-3-3-3/4-4-----6-6-6-6-6-6-6-6-7-7-7-7-7-7-7-7--2---|
|---------0-0-0--------------------4-4-4-4-4-4-4-4-5-5-5-5-5-5-5-5--0---|
                                   [_______________________________]
                                               Palm Muted



~Solo~
|--------------------------------------------------------------|
|--------------------------------------------------------------|
|-------7--9--7------------------------------------------------|
|----9------------9-----7--7--7-------5/7--5-------------------|
|--------------------10-----------10---------------------------|
|--------------------------------------------------------------|


|--------------------------------------------------------------|
|--------------------------------------------------------------|
|-------7--9--7------------------------------------------------|
|----9------------9-----9b-9b-9b-------------------------------|
|--------------------10----------------------------------------|
|--------------------------------------------------------------|


|------------------------------------------------------------------------|
|------------------------------------------------------------------------|
|---7--9--7--------------------------------------------------------------|
|-9----------9--7--7--7-----5/7--5---9b--9b--9b--9b--12b--12b--12b--12b--|
|------------------------10-------10-------------------------------------|
|------------------------------------------------------------------------|



~Play it like this ~
Intro (x4)
Verse (x6)
Bridge
Chorus
Verse (x4)
Bridge
Chorus
Solo
Chorus


Any questions or if I got some of it wrong just leave a comment here!
Related for Staceys Mom tab