Guitaretab - guitar tabs
Song name
# A B C D E F G H I J K L M N O P Q R S T U V W X Y Z

Fountains Of Wayne - Someone To Love tab

Someone To Love by Fountains Of Wayne
from Traffic And Weather

e-----2----------------------------|
B-------3-2-------2-----2-3--------|
G-3-4---------3-4-----4------------|
D-----------4-------5-------2-4-4--|
A----------------------------------|
E----------------------------------|

                                      x3
e--------------------------------------|
B--------------------------------------|
G-44444444-------------------77777777--|
D-44444444-44444444-55555555-77777777--|
A-22222222-44444444-55555555-55555555--|
E----------22222222-33333333-----------|
[ Tab from: http://www.guitaretab.com/f/fountains-of-wayne/152735.html ]
0.33
e-------------------------------------------------------------------|
B-------------------------------------------------------------------|
G----------------------------77777777-------------------------------|
D-77777777-22222222-55555555-77777777-77777777-22222222-55555555----|
A-77777777-22222222-55555555-55555555-77777777-22222222-55555555----|
E-55555555-00000000-33333333----------55555555-00000000-33333333----|

cont. from above
e----------|
B----------|
G----------|
D-44444444-|
A-44444444-|
E-22222222-|

CHORUS
e-----------------------------------------------------------------|
B-----------------------------------------------------------------|
G----------77777777----------77777777-------------------77777777--|
D-55555555-77777777-77777777-77777777-44444444-55555555-77777777--|
A-55555555-55555555-77777777-55555555-44444444-55555555-55555555--|
E-33333333----------55555555----------22222222-33333333-----------|

One of these nights you might find someone to love
e-----------------------------------|
B-----------------------------------|
G-------44-------77-44----77777777--|
D-77-44-44-44-55-77-44-55-77777777--|
A-77-44-22-44-55-55-22-55-55555555--|
E-55-22----22-33-------33-----------|

Any corrections please comment
Thanks
Related for Someone To Love tab