Song name
# A B C D E F G H I J K L M N O P Q R S T U V W X Y Z

Fountains Of Wayne - Youre Just Never Satisfied tab

------------------------------------------------------------------------------- 
            You're Just Never Satisfied - Fountains of Wayne
-------------------------------------------------------------------------------

Tuning: Standard

There wasn't an actual tab up for yet for this song with a solo and all, so here
you go. Should be pretty accurate, please leave comments/corrections!

VERSE
e|------------------------------|
B|------------------------------|
G|-2-----------------4----------|
D|-2-x8--4-----5-----4-x8-------|  x2
A|-0-----4-x8--5-x8--2----------|
E|-------2-----3----------------|

CHORUS                                         "you're just never satisfied"
e|--------------------------------------------|---------------------|
B|--------------------------------------------|---------------------|
G|-------2------7------------2-----7-----6----|-7-----------2-------|
D|-2-----2-x4---7-x4---2-----2-x4--7-x4--6-x8-|-7-x4--5-----2-x8----|
A|-2-x8--0------5------2-x8--0-----5-----4----|-5-----5-x4--0-------|
E|-0-------------------0----------------------|-------3-------------|
The second guitar in the back is hard to hear but there are some fills going on
I think they go something like this

Whenever there is an E:         There is also something around when the C# is played:
e|-----------|                           e|-----------| 
B|-----------|                           B|-----------|
G|---1-------|                           G|---4h6p4---| (You will hear this
D|-----0h2---|                           D|-----------|  multiple times)
A|-2-------2-|                           A|-----------|
E|-----------|                           E|-----------|



POST-CHORUS 1
e|---------------------------------|
B|---------------------------------|
G|-------7-----2-----------7-------|
D|-5-----7-x4--2-x8--5-----7-x4----|
A|-5-x4--5-----0-----5-x4--5-------|
E|-3-----------------3-------------|

VERSE (same chords as before with this little lead part starting around 0:49)
e|--------------------------------------------------------------|
B|--------------------------------------------------------------|
G|--------------------------------------------------------------|
D|--9h11p9-7---7--7--7--9--7--6------------9h11p9-7--9---7------|
A|--------------------------------------------------------------|
E|--------------------------------------------------------------|

CHORUS                                         "you're just never satisfied"
e|--------------------------------------------|---------------------|
B|--------------------------------------------|---------------------| Play
G|-------2------7------------2-----7-----6----|-7-----------2-------| Last
D|-2-----2-x4---7-x4---2-----2-x4--7-x4--6-x8-|-7-x4--5-----2-x8----| Bar
A|-2-x8--0------5------2-x8--0-----5-----4----|-5-----5-x4--0-------| Twice
E|-0-------------------0----------------------|-------3-------------|


POST-CHORUS 2
e|---------|
B|---------|
G|-2-------|
D|-2-x8----|
A|-0-------|
E|---------|

BRIDGE
e|---------------------------------------------------|
B|---------------------------------------------------|
G|-------2-----------2-----------6-----------7-------|
D|-4-----2-x8--2-----2-x8--4-----6-x8--5-----7-x16---|
A|-4-x8--0-----2-x8--0-----4-x8--4-----5-x8--5-------|
E|-2-----------0-----------2-----------3-------------|

SOLO [A]              [F#m]                 [G]           [Bm]
e|--------------------------------------------------------------------------|
B|--------------------------------------------------------------------------|
G|--------------------------------------------------------------------------|
D|-------7--9--11------------------------------12--11--9-----12--11-9h11p9--|
A|----7---------------12--11--10--11--12-----7-------------7----------------|
E|--------------------------------------------------------------------------|
     
     [A]              [F#m]                 [G]             [Bm]
e|--------------------------------------------------------------------------|
B|--------------------------------------------------------------------------|
G|--------------------------------------------------------------------------|
D|-------7--9--11------------------------------12--11--9-7--9--7-----7--9---|
A|----7---------------12--11--10--11--12-----7--------------------9---------|
E|--------------------------------------------------------------------------|
(Lyrics "I've been wasting my time" start on the last chord of the solo
 And match up with the notes played)

CHORUS                                         "you're just never satisfied"
e|--------------------------------------------|---------------------|
B|--------------------------------------------|---------------------| Play
G|-------2------7------------2-----7-----6----|-7-----------2-------| Last
D|-2-----2-x4---7-x4---2-----2-x4--7-x4--6-x8-|-7-x4--5-----2-x8----| Bar
A|-2-x8--0------5------2-x8--0-----5-----4----|-5-----5-x4--0-------| Three
E|-0-------------------0----------------------|-------3-------------| Times


POST-CHORUS 3
e|-------------------|
B|-------------------|
G|-7-----------2~----|
D|-7-x4--5-----2~----|
A|-5-----5-x4--0~----|
E|-------3-----------|

Tap to rate this tab
 
# A B C D E F G H I J K L M N O P Q R S T U V W X Y Z