Song name
# A B C D E F G H I J K L M N O P Q R S T U V W X Y Z

Fountains Of Wayne - Hackensack tab

Hackensack
Fountains of Wayne
tabbed from lead guitar + vocals

Intro & Verse (and 2nd part of chorus)
E-----------------------------------------------------------------------|
B-----------------------------------------------------------------------|
G-----------------------------------------------------------------------|
D----------------10----------------------------------6---5--------------|
A--10---8---10--------10---6---8---10-10--6---5---6-----------6---------|
E-----------------------------------------------------------------------|


First part of chorus
E-----------------------------------------------------------------------|
B-----------------------------------------------------------------------|
G-----------------13---12----------------------13---12------------------|
D---8---8\10-10-------------13~---8--8\10-10-------------13/12----------|
A-----------------------------------------------------------------------|
E-----------------------------------------------------------------------|

Solo
E-----------------------------------------------------------------------|
B-----------------------------------------------------------------------|
G-----------------------------------------------------------------------|(2x)
D-----------------------------------------------------------------------|
A---10-------13---10-------13---10-------12---10--------13--------------|
E-------11------------11------------10-------------11-------------------|

E-----------------------------------------------------------------------|
B-----------------------------------------------------------------------|
G-----------------------------------------------------------------------|
D-----------------------------------------------------------------------|
A---10-------13---10-------13---10-------12---10--------12--------------|
E-------11------------11------------10-------------10-------------------|

Some Variation to the verse
E------------------------------------------------------------------------|
B------------------13----------------------------------------------------|
G---12---10---12--------12---8---10---12--12-----------------13--12------|
D----------------------------------------------13---12---13----------13~-|
A------------------------------------------------------------------------|
E------------------------------------------------------------------------|


really enjoyed tabbing out this song. hope ya'll like it! :D
-wadudu-
Tap to rate this tab
 
# A B C D E F G H I J K L M N O P Q R S T U V W X Y Z