Fountains Of Wayne - Staceys Mom tab

STACEY'S MOM - *SOLO*
FOUNTAINS OF WAYNE

I was playing along to another solo tab to this song and some bits just didnt seem 
right, so I tried gettin' em right.

e|--------------------------------------------------------------|
B|--------------------------------------------------------------|
G|-------7--9--7------------------------------------------------|
D|----9------------9-----7--7--7-------7/9--7-------------------|
A|--------------------10-----------10---------------------------|
E|--------------------------------------------------------------|


e|--------------------------------------------------------------|
B|--------------------------------------------------------------|
G|-------7--9--7------------------------------------------------|
D|----9------------9-----9h10-9h10-9h10-------------------------|
A|--------------------10----------------------------------------|
E|--------------------------------------------------------------|


e|----------------------------------------------------------------------------------------|
B|----------------------------------------------------------------------------------------|
G|---7--9--7------------------------------------------------------------------------------|
D|-9----------9--7--7--7-----7/9--7----9h10--9h10--9h10--9h10--13h14--13h14--13h14--13h14-|
A|-------------10---------10--------10----------------------------------------------------|
E|----------------------------------------------------------------------------------------|

Not really that much of a hard solo to play so is very good for guitarists just learning 
how to play.

Enjoy.

************************************

| /   slide up
| \   slide down
| h   hammer-on
| p   pull-off
| ~   vibrato
| +   harmonic
| x   Mute note
| b   Bend

************************************
Tap to rate this tab
 
# A B C D E F G H I J K L M N O P Q R S T U V W X Y Z