Song name
# A B C D E F G H I J K L M N O P Q R S T U V W X Y Z

Fountains Of Wayne - Staceys Mom tab

'Stacey's Mom' - Fountains of Wayne

I kind of improvised with this because I couldn't 
quite tell exactly how it's played, but this sounds pretty 
accurate to me.

standard tuning

 Solo
e|------------------------------------------------------------|
b|-----------------------------------------------0------------|
g|----5/7--9\7--5------------------5/7--9\7--5---4h5(x4)------|
d|----------------5/7-7-7-5-9-7\5--------------5--------------|
A|------------------------------------------------------------|
E|------------------------------------------------------------|

|-------------------------------------------------------------|
|---------------------------------0----------0----------------|
|----5/7--9\7--5------------------4h5(x4)----8h9(x4)----------|
|----------------5/7-7-7-5-9-7\5------------------------------|
|-------------------------------------------------------------|
|-------------------------------------------------------------|

Key:
/ - slide up
\ - slide down

hope this helped guys!
Tap to rate this tab
# A B C D E F G H I J K L M N O P Q R S T U V W X Y Z