Guitaretab - guitar tabs
Song name
# A B C D E F G H I J K L M N O P Q R S T U V W X Y Z

Fountains Of Wayne - Bright Future In Sales tab

 --------------------------------------------------------------------------------------
 	            BRIGHT FUTURE IN SALES - Fountains of Wayne
 --------------------------------------------------------------------------------------

 Tabbed by: l3l3 King
 Email: wolfendude87@aol.com

 Tuning: Standard EADGBe

 | / = slide up
 | \ = slide down
 | h = hammer-on
 | p = pull-off
 | ~ = vibrato


 Intro/Chorus Riff:
 e|---------------------------------|
 B|---------------------------------|
 G|---------------------------------|
 D|------------5-6-7----------------|
 A|-0-3-4-5--3-------0-3-5--5/6\5-3-|
 E|---------------------------------|

 (A) Verse (all palm-muted except where noted):
                                                         (--not muted--)
 |---------------------------------------------------------------------|
 |---------------------------------------------------------------------|
 |-------------------------------------------------------------7--7--7-|
 |-2-2-4(2)-2-2-4(2)-------------------7-7-9(7)-7-7-9(7)-------7--7--7-|
 |-0-0-0(0)-0-0-0(0)-2-2-4(2)-2-2-4(2)-5-5-5(5)-5-5-5(5)-0-3-4-5--5--5-|
 |-------------------0-0-0(0)-0-0-0(0)---------------------------------|

 |-------------------------------------------------------------------------|
 |-------------------------------------------------------------------------|
 |-------------------------------------------------------------------------|
 |-2-2-4(2)-2-2-4(2)-------------------7-7-9(7)-7-7-9(7)-2-2-4(2)-2-2-4(2)-|
 |-0-0-0(0)-0-0-0(0)-2-2-4(2)-2-2-4(2)-5-5-5(5)-5-5-5(5)-0-0-0(0)-0-0-0(0)-|
 |-------------------0-0-0(0)-0-0-0(0)-------------------------------------|

                                                   (--------not muted---------)
 |----------------------------------------------------------------------------|
 |----------------------------------------------------------------------------|
 |-7-7-7-7-7-7-7-7-----------------7-7-7-7-7-7-7-7-------6-7-8-9---9--9-9--7\-|
 |-7-7-7-7-7-7-7-7-7-7-7-7-7-7-7-7-7-7-7-7-7-7-7-7-4--4--6-7-8-9---9--9-9--7\-|
 |-5-5-5-5-5-5-5-5-7-7-7-7-7-7-7-7-5-5-5-5-5-5-5-5-4--4--4-5-6-7---7--7-7--5\-|
 |-----------------5-5-5-5-5-5-5-5-----------------2--2-----------------------|

[ Tab from: http://www.guitaretab.com/f/fountains-of-wayne/34798.html ]
 (B) Chorus:
 |-------------------------------------------------------------------------------------|
 |-------------------------------------------------------------------------------------|
 |-2--2--------7--7-7-7--2--2--------7--7-7-7---------------4--4--4--4--------------7--|
 |-2--2--2-----7--7-7-7--2--2--2-----7--7-7-7---4--4--4--4--4--4--4--4--5--5--5--5--7--|
 |-0--0--2-----5--5-5-5--0--0--2-----5--5-5-5---4--4--4--4--2--2--2--2--5--5--5--5--5--|
 |-------0---------------------0----------------2--2--2--2--------------3--3--3--3-----|

 (C) Bridge (Allow chords to ring out):
 |----------------------------------------------------|
 |-------------(7)------------------------------------|
 |-(1)----------7----------(1)------------------5---7-|
 |--2-----------7-----------2------------5------3---7-|
 |--2-----------5-----------2------------5------3---5-|
 |--0-----------------------0------------3------------|

 (D) Solo (Generous wah-wah effect):
 |-----------------------------------------------------------------------|
 |--/10--/10-------------------------------------------------------------| 
 |-----------12----12----------------------------------------------------| 
 |--------------14----14-----10-12-10------10----10-12-12/13-12h13p12p10-| 
 |------------------------10----------12------12-------------------------| 
 |-----------------------------------------------------------------------| 

 |---------------------------------|
 |----------- And lots of wah,-----|
 |-13^14~~~ wammy, and bends that -|
 |----------- I can't decipher ----|
 |---------------------------------|
 |---------------------------------|

 - STRUCTURE -
 Intro
 A
 B
 A
 B
 C
 D
 B

 - LYRICS -

 Verse 1
 =======
 Sleepin' on a planner at the port authority
 Waiting for my bus to come

 Seven scotch and sodas at the office party
 Now I don't remember where I'm from

 I think I had a
 Black wallet
 In My
 Back pocket
 With a
 Bus ticket
 And a picture of my baby inside
 And if I make it home alive I'm gonna...

 Chorus
 ======
 Get my shit together
 'Cuz I can't live like this forever
 Ya know I've come too far
 And I don't wanna fail
 I got a new computer and a
 Bright future in sales, yeah yeah
 Bright future in sales, yeah yeah

 Verse 2
 =======
 Headin' for the airport on a misty morning
 Gonna catch a flight to Baltimore

 Tried to kill an hour with the whiskey sour
 And this time I might have just one more

 I gotta do some
 Quick reading
 For the
 Big meeting
 But my
 Head is spinning
 And I can't quite open my eyes
 As long as I don't have to drive I'm gonna...

 Bridge
 ======
 I had a line on a brand-new account
 But now I can't seem to find where I wrote that number down
 I try to focus
 I'm staring at the screen
 Pretending like I know what all these little flashing lights mean

 =================================================================
Related for Bright Future In Sales tab
Bright Future In Sales chords by Fountains Of Wayne