Song name
# A B C D E F G H I J K L M N O P Q R S T U V W X Y Z

Fountains Of Wayne - Barbara H tab

Part 1:
G-----------------------------------------------------------------|
D-----------------------------------------------------------------|
A--5-5-5-5-5-------5-5-5-5-5-5------------------------------------|
E------------5-5-5-------------5-5--------------------------------|

Part 2:
G-----------------------------------------------------------------|
D-----------------------------------------------------------------|
A-----------------------------------------------------------------|
E--3-3-3-3-3-3-3-3-3-3-3-3-3-3-3-3--------------------------------|

Part 3:
G-----------------------------------------------------------------|
D-----------------------------------------------------------------|
A-----------------------------------------------------------------|
E--1-1-1-1-1-1-1-1-5-5-5-5-5-5-5-5--------------------------------|

Part 4:
G-----------------------------------------------------------------|
D-----------------------------------------------------------------|
A--------5-5-5-5-5------------------------------------------------|
E--3-3-3-----------5-5-5-5-5-5-5-5--------------------------------|

Part 5:
G-----------------------------------------------------------------|
D-----------------------------------------------------------------|
A--5-(5)-(5)-(5)-(5)-(5)-(5)-(5)----------------------------------|
E-----------------------------------------------------------------|

Part 6:
G-----------------------------------------------------------------|
D-----------------------------------------------------------------|
A--5-5-5-5-5-------5-5-5-5----------------------------------------|
E------------5-5-5------------------------------------------------|

Structure:

0:00 Part 1 x4
Part 2 x1
0:22 Part 1 x3
Part 2 x1
Part 3 x1
0:43 Part 4 x3
Part 3 x1
1:01 Part 1 x4
Part 2 x1
1:22 Part 1  x3
Part 2 x1
Part 3 x1
1:43 Part 4 x3
Part 3 x1
2:00 Part 1 x2
Part 2 x1
2:13 Part 1 x3
Part 2 x1
Part 3 x1
2:34 Part 4 x3
Part 3 x1
Part 5 x1
Part 3 x1
3:00 Part 1  x3
Part 6 x1
Tap to rate this tab
# A B C D E F G H I J K L M N O P Q R S T U V W X Y Z