Guitaretab - guitar tabs
Song name
# A B C D E F G H I J K L M N O P Q R S T U V W X Y Z

Fountains Of Wayne - Mexican Wine tab

Intro:
E-----------------------------------------------------------|
B-----------------------------------------------------------|
G-11-11-11-11-11-11-11-11-6-6-6-6-6-6-6-6-8-8-8-8-8-8-8-8---|
D-11-11-11-11-11-11-11-11-6-6-6-6-6-6-6-6-8-8-8-8-8-8-8-8---|
A-9--9--9--9--9--9--9--9--4-4-4-4-4-4-4-4-6-6-6-6-6-6-6-6---|
E-----------------------------------------------------------|

E-----------------------------------------------------------|
B-----------------------------------------------------------|
G-4-4-4-4-4-4-4-4-------------------------------------------|    X2
D-4-4-4-4-4-4-4-4-------------------------------------------|
A-2-2-2-2-2-2-2-2-------------------------------------------|
E-----------------------------------------------------------|

E--------------------------|
B--------------------------|
G-11-11-11-11-11-11-11-11--|
D-11-11-11-11-11-11-11-11--|   x4
A-9--9--9--9--9--9--9--9---|
E--------------------------|

Lead:
E6h7p6-----------|
B-----------------|
G-----------------|  x4
D-----------------|
A-----------------|
E-----------------|
Verse:
E---------------------------------------------------|
B---------------------------------------------------|
G-----------------6-6-6-6-6-6-6-6-8-8-8-8-8-8-8-8---|
D-4-4-4-4-4-4-4-4-6-6-6-6-6-6-6-6-8-8-8-8-8-8-8-8---|
A-4-4-4-4-4-4-4-4-4-4-4-4-4-4-4-4-6-6-6-6-6-6-6-6---|
E-2-2-2-2-2-2-2-2-----------------------------------|

E---------------------------------------------------|
B---------------------------------------------------|
G-4-4-4-4-4-4-4-4-----------------------------------|
D-4-4-4-4-4-4-4-4-----------------------------------|    x2
A-2-2-2-2-2-2-2-2-----------------------------------|
E---------------------------------------------------|
Chorus:
E---------------------------------|
B---------------------------------|
G---------6-6-6-6-4-4-4-4-4-4-4-4-|
D-4-4-4-4-6-6-6-6-4-4-4-4-4-4-4-4-|  x3
A-4-4-4-4-4-4-4-4-2-2-2-2-2-2-2-2-|
E-2-2-2-2-------------------------|
[ Tab from: http://www.guitaretab.com/f/fountains-of-wayne/45764.html ]
E---------------------------------|
B---------------------------------|
G-8-8-8-8-6-6-6-6-X-X-6-6---------|
D-8-8-8-8-6-6-6-6-X-X-6-6-4-4--4--| x2
A-6-6-6-6-4-4-4-4-X-X-4-4-4-4--4--|
E-------------------------2-2--2--|

Solo:
E-------------------------------------------------|
B-------9-----------------------7-----------------|
G-5h6-8--6-5-5-3-5-5h6-33h4-6---4-3-3-1-3-3h4-1-|
D-------------------------------------------------| x2
A-------------------------------------------------|
E-------------------------------------------------|

Raised chorus:
E---------------------------------------------------------|
B---------------------------------------------------------|
G-----------------8-8-8-8-8-8-8-8-10-10-10-10-10-10-10-10-|
D-6-6-6-6-6-6-6-6-8-8-8-8-8-8-8-8-10-10-10-10-10-10-10-10-|
A-6-6-6-6-6-6-6-6-6-6-6-6-6-6-6-6-8--8--8--8--8--8--8--8--|
E-4-4-4-4-4-4-4-4-----------------------------------------|

E-----------------|
B-----------------|
G-6-6-6-6-6-6-6-6-|  X2
D-6-6-6-6-6-6-6-6-|
A-4-4-4-4-4-4-4-4-|
E-----------------|
Raised Chorus:
E---------------------------------|
B---------------------------------|
G---------8-8-8-8-6-6-6-6-6-6-6-6-|
D-6-6-6-6-8-8-8-8-6-6-6-6-6-6-6-6-|  x3
A-6-6-6-6-6-6-6-6-4-4-4-4-4-4-4-4-|
E-4-4-4-4-------------------------|

E------------------------------------|
B------------------------------------|
G-10-10-10-10-8-8-8-8-8-8-8-8--------|
D-10-10-10-10-8-8-8-8-8-8-8-8-6--6-6-|  x2
A-8--8--8--8--6-6-6-6-6-6-6-6-6--6-6-|
E-----------------------------4--4-4-|

E---------------------------------------------|
B---------------------------------------------|
G-10-10-10-10-8-8-8-8-8-8-8-8-6-6-6-6-6-6-6-6-|
D-10-10-10-10-8-8-8-8-8-8-8-8-6-6-6-6-6-6-6-6-|
A-8--8--8--8--6-6-6-6-6-6-6-6-4-4-4-4-4-4-4-4-|
E---------------------------------------------|

End:
E----------------------------------------------|
B----------------------------------------------|
G-11-11-11----------11-11-11-------------------|
D-11-11-11-11-11-11-11-11-11-11-11-11--11-6~~--|
A-9--9--9--11-11-11-9--9--9--11-11-11-11-6~~--|
E----------9--9--9-----------9--9--9---9--4~~--|
Related for Mexican Wine tab