Song name
# A B C D E F G H I J K L M N O P Q R S T U V W X Y Z

Fountains Of Wayne - Please Dont Rock Me Tonight tab

Please Don't Rock Me Tonight - Fountains of Wayne

Tabbed: Rob Kurtz

  Verse:

Chords:
         C x8            C x8             A x8             F x8
e---------------------------------------------------------------------|
B---------------------------------------------------------------------|
G--5-5-5-5-5-5-5-5--5-5-5-5-5-5-5-5--2-2-2-2-2-2-2-2------------------|
D--5-5-5-5-5-5-5-5--5-5-5-5-5-5-5-5--2-2-2-2-2-2-2-2--3-3-3-3-3-3-3-3-|
A--3-3-3-3-3-3-3-3--3-3-3-3-3-3-3-3--0-0-0-0-0-0-0-0--3-3-3-3-3-3-3-3-|
E-----------------------------------------------------1-1-1-1-1-1-1-1-|


  Prechorus: You know it isn't...

Chords:
        D x8             Bb x8             F x8             G x8
e----------------------------------------------------------------------|
B----------------------------------------------------------------------|
G--7-7-7-7-7-7-7-7--3-3-3-3-3-3-3-3------------------------------------|
D--7-7-7-7-7-7-7-7--3-3-3-3-3-3-3-3--3-3-3-3-3-3-3-3--5-5-5-5-5-5-5-5--|
A--5-5-5-5-5-5-5-5--1-1-1-1-1-1-1-1--3-3-3-3-3-3-3-3--5-5-5-5-5-5-5-5--|
E------------------------------------1-1-1-1-1-1-1-1--3-3-3-3-3-3-3-3--|


  Chorus: Please Don't Rock me Tonight..

Chords:
       C x8             E x8              A x8            F x8
e---------------------------------------------------------------------|
B---------------------------------------------------------------------|
G--5-5-5-5-5-5-5-5-------------------2-2-2-2-2-2-2-2------------------|
D--5-5-5-5-5-5-5-5--2-2-2-2-2-2-2-2--2-2-2-2-2-2-2-2--3-3-3-3-3-3-3-3-|
A--3-3-3-3-3-3-3-3--2-2-2-2-2-2-2-2--0-0-0-0-0-0-0-0--3-3-3-3-3-3-3-3-|
E-------------------0-0-0-0-0-0-0-0-------------------1-1-1-1-1-1-1-1-|
     (first two "Please don't rock me tonight"s)

       C x8            E x8             A x8             A x8                 E x8       G x8
e---------------------------------------------------------------------------------------------------------|
B---------------------------------------------------------------------------------------------------------|
G--5-5-5-5-5-5-5-5-------------------2-2-2-2-2-2-2-2--2-2-2-2-2-2-2-2-------------------------------------|
D--5-5-5-5-5-5-5-5--2-2-2-2-2-2-2-2--2-2-2-2-2-2-2-2--2-2-2-2-2-2-2-2---2-2-2-2-2-2-2-2--5-5-5-5-5-5-5-5--|
A--3-3-3-3-3-3-3-3--2-2-2-2-2-2-2-2--0-0-0-0-0-0-0-0--0-0-0-0-0-0-0-0---2-2-2-2-2-2-2-2--5-5-5-5-5-5-5-5--|
E-------------------0-0-0-0-0-0-0-0-------------------------------------0-0-0-0-0-0-0-0--3-3-3-3-3-3-3-3--|
    (third "Please don't rock me tonight")            ["im not in the mood"]  {this is 
bridge aslo}


Riff:

e----1-0---1-0---1-0---1-0---0-1---1-0---1-0---1-0---1-0---1-0---1-0---|
B--1-----1-----1-----1-----1-----1-----1-----1-----1-----1-----1-----1-|
G----------------------------------------------------------------------|
D----------------------------------------------------------------------|
A----------------------------------------------------------------------|
E----------------------------------------------------------------------|
                 [this is played over the chorus]

  Solo:

Chords:
         C x8            C x8             A x8             F x8
e---------------------------------------------------------------------|
B---------------------------------------------------------------------|
G--5-5-5-5-5-5-5-5--5-5-5-5-5-5-5-5--2-2-2-2-2-2-2-2------------------|
D--5-5-5-5-5-5-5-5--5-5-5-5-5-5-5-5--2-2-2-2-2-2-2-2--3-3-3-3-3-3-3-3-|
A--3-3-3-3-3-3-3-3--3-3-3-3-3-3-3-3--0-0-0-0-0-0-0-0--3-3-3-3-3-3-3-3-|
E-----------------------------------------------------1-1-1-1-1-1-1-1-|


Lead:

e-------------------------------------------------------------------------------|
B-------------------------------------------------------------------------------|
G-------------------------------------------------------------------------------|
D----2---0-2-0---2---0-2-0---2---0-2-0---2---0-2-0---2---0-2-0---2---0-2-0------|
A--3---3-------3---3-------3---3-------3---3-------3---3-------3---3-------3\---|
E-----------------------------------------------------------------------------3-|

If there are any problems email me at takeawaysmusic@yahoo.com
Tap to rate this tab
# A B C D E F G H I J K L M N O P Q R S T U V W X Y Z