Song name
# A B C D E F G H I J K L M N O P Q R S T U V W X Y Z

Fountains Of Wayne - Maureen tab

So...if you're like me you like it when the tabs are spelled out for you as opposed to 
chords, you'll have to figure out the rhythms but it's really not that hard...plus I'ma 
the solo a shot. Please rate!

Intro (backing the keyboard)

e|-------------------------|
B|-------------------------|
G|-------6666--7777--------|
D|-2222--6666--7777--7777--|x2
A|-2222--4444--5555--7777--|
E|-0000--------------5555--|

Verse (a couple of little licks here and there, usually of what you're playing anyway, 
distorted, but this is the main thing)

e|-------------------------|
B|-------------------------|
G|-------6666--7777--------|
D|-2222--6666--7777--7777--|x2
A|-2222--4444--5555--7777--|
E|-0000--------------5555--|
   ****  ****  ****  ****

Chorus

e|-------------------------|
B|-------------------------|
G|-------4444--7777--------|
D|-2222--4444--7777--7777--|x2
A|-2222--2222--5555--7777--|
E|-0000--------------5555--|

e|-------------------------|
B|-------------------------|
G|----------4~-444---------|
D|-2-2-2-2--4~-444---------|
A|-2-2-2-2--2~-222---------|
E|-0-0-0-0-----------------|

Intro (the "Do you know what I mean?" part)

Verse (x2)

Chorus

Bridge

e|-------------------------|
B|-------------------------|
G|-7777--------------4444--|
D|-7777--7777--2222--4444--|
A|-5555--7777--2222--2222--|
E|-------5555--0000--------|

And here's the "solo"...this won't be pretty (and yes, those are 11's)...

e|---------------------------------|
B|----------------------9-9--------|
G|-11-11-9-7-6-6-8-9-11-----11-9-8-|
D|---------------------------------|
A|---------------------------------|
E|---------------------------------|

e|---------------------------------|
B|---------------------------------|
G|-11-11-9-7-6---------------------|
D|-------------9b------------------|
A|---------------------------------|
E|---------------------------------|

e|---------------------------------|
B|----------------------9-9--------|
G|-11-11-9-7-6-6-8-9-11-----11-9-8-|
D|---------------------------------|
A|---------------------------------|
E|---------------------------------|

e|---------------------------------|
B|---------------------------------|
G|-11-11-9-7-6---------------------|
D|-------------99999999------------|
A|-------------99999999------------|
E|-------------77777777------------|

And what you can play under the solo
e|-------------------------|
B|-------------------------|
G|-7777--------------4444--|
D|-7777--7777--2222--4444--|
A|-5555--7777--2222--2222--|
E|-------5555--0000--------|

e|-------------------------|
B|-------------------------|
G|-7777--------4444--------|
D|-7777--7777--4444--------|
A|-5555--7777--2222--------|
E|-------5555--------------|

Then, when the solo ends, we hit the...

Chorus (you'll repeat the first part a bit longer, then when you hit the second part it's):

e|---------------------------------|
B|---------------------------------|
G|------------44-------------------|
D|-4/2/0/2/1--44-------------------|
A|------------22-------------------|
E|---------------------------------|

And that's it! The ending is the only thing I'm not 100% sure on, but that's how it 
to me. Happy playing and please rate!
Tap to rate this tab
# A B C D E F G H I J K L M N O P Q R S T U V W X Y Z