Song name
# A B C D E F G H I J K L M N O P Q R S T U V W X Y Z

Fountains Of Wayne - Bought For A Song tab

Version 2.0
(easier to read)
Intro
0:19-0:40  (Strum G)
|-33333333333333333333333333333333333333333333333333333333333333333333-|
|-33333333333333333333333333333333333333333333333333333333333333333333-|
|-00000000000000000000000000000000000000000000000000000000000000000000-|
|-00000000000000000000000000000000000000000000000000000000000000000000-|
|-22222222222222222222222222222222222222222222222222222222222222222222-|
|-33333333333333333333333333333333333333333333333333333333333333333333-|
(A,C,G)
|------------------------------3333333333333333-|
|-2222222222222-11111111111111-3333333333333333-|
|-2222222222222-00000000000000-0000000000000000-|
|-2222222222222-22222222222222-0000000000000000-|
|-0000000000000-33333333333333-2222222222222222-|
|------------------------------3333333333333333-|

Verse
0:41-0:55
|-----3---------3-----------------------|
|-----3---------3-----------------------|
|-----0---------0-----------------------|
|-555-0-5555555-0-55555-777777-10101010-|
|-555-2-5555555-2-55555-777777-10101010-| (It might end in a G like the intro)
|-333-3-3333333-3-33333-555555-8888888--|

Prechorus
0:56-1:02
|-XX-3-XX-3-XX-3-XX-3-XX-3-XX-3-XX-3-XX-3-XX-3-XX-|
|-XX-3-XX-3-XX-3-XX-3-XX-3-XX-3-XX-3-XX-3-XX-3-XX-|
|-XX-0-XX-0-XX-0-XX-0-XX-0-XX-0-XX-0-XX-0-XX-0-XX-|
|-XX-2-XX-2-XX-2-XX-2-XX-0-XX-0-XX-0-XX-0-XX-0-XX-|
|-XX-3-XX-3-XX-3-XX-3-XX-2-XX-2-XX-2-XX-2-XX-2-XX-|
|-XX---XX---XX---XX---XX-3-XX-3-XX-3-XX-3-XX-3-XX-|

Chorus
1:03-1:13
|-----------------------|x1
|-----------------------|
|------------55555555555-|
|-5555555555-55555555555-|
|-5555555555-33333333333-|
|-3333333333------------|

|----3----3/7-|x2
|-3-----3-----|
|-------------|
|-------------|
|-------------|
|-------------|

Verse 1:14-1:43
Prechorus 1:44-1:50
Chorus 1:51-2:06
Right now I cant figure out the solo (2:07-2:35)
Prechorus 2:36-2:42
Chorus 2:43-3:17
Then they mess around and sorta do another solo (3:17-4:01)

Enj0y!



Tap to rate this tab
# A B C D E F G H I J K L M N O P Q R S T U V W X Y Z