Guitaretab - guitar tabs
Song name
# A B C D E F G H I J K L M N O P Q R S T U V W X Y Z

Four Letter Lie - Firecracker tab

Let me know what you think..

Questions? Comments? Concerns?
chirho89@yahoo.com

ENJOY! :]

Firecracker Guitar Solo by FOUR LETTER LIE

eb|-----------------------12brbr--10--------------------|
Bb|----------------10/12--------------12p10p8h10-------|
Gb|-12p9---12p9-9---------------------------------12p9--|
Db|-----------------------------------------------------|
Ab|-----------------------------------------------------|
Db|-----------------------------------------------------|
[ Tab from: http://www.guitaretab.com/f/four-letter-lie/188739.html ]
eb|-15p10-12-15/17-17-12-----------10----10-12-15p12--|
Bb|-----------------------10/12-12----12--------------|
Gb|---------------------------------------------------|
Db|---------------------------------------------------|
Ab|---------------------------------------------------|
Db|---------------------------------------------------|

eb|----------10----10-12-15p12--19p17p15-19b-17-15-----------------------|
Bb|-10/12-12----12----------------------------------7/9-7----------------|
Gb|-------------------------------------------------------7---------7----|
Db|---------------------------------------------------------10-7-10---10-|
Ab|----------------------------------------------------------------------|
Db|----------------------------------------------------------------------|

key:

h = hammer on
p = pull off
/ = slide
b = bend
r = release
Related for Firecracker tab