Song name
# A B C D E F G H I J K L M N O P Q R S T U V W X Y Z

Four Letter Lie - Firecracker tab

Four Letter Lie - 'Firecracker'
Any problems?- I_Got_Slimed@hotmail.com

     T= Tapping
     ^= Bend
     H= Hammer on
     P= Pull off
/ or \= Slide
     ~= Vibrato

eb|---------------------------12^12^----10---7p5p3h5^---3p0-------|
Bb|--8p5~-----8p5~--5--5/12---------------------------------------|
Gb|---------------------------------------------------------------|
Db|---------------------------------------------------------------|
Ab|---------------------------------------------------------------|
Db|---------------------------------------------------------------|

eb|--15T--3p0--15T/17T--10h12-----------------12----10-12-15p12~--|
Bb|-------------------------------------12-12----12---------------|
Gb|---------------------------------------------------------------|
Db|---------------------------------------------------------------|
Ab|---------------------------------------------------------------|
Db|---------------------------------------------------------------|

eb|-----------12----10-12-15p12~--------17p15p13h15--15^15^-------|
Bb|-----12-12----12-----------------------------------------------|
Gb|---------------------------------------------------------------|
Db|---------------------------------------------------------------|
Ab|---------------------------------------------------------------|
Db|---------------------------------------------------------------|

eb|---17~----15~--------------------------------------------------|
Bb|---------------------------------------------------------------|
Gb|-----------------/9--7-----------------------------------------|
Db|------------------------7--5--2--5--7~----5~~~~----------------|
Ab|---------------------------------------------------------------|
Db|---------------------------------------------------------------|
Tap to rate this tab
 
# A B C D E F G H I J K L M N O P Q R S T U V W X Y Z