Song name
# A B C D E F G H I J K L M N O P Q R S T U V W X Y Z

Four Letter Lie - Daymaker tab

Artist: Four Letter Lie
Song: Daymaker
Album: A New Day
Tuning: Db Ab Db Gb Bb Eb

      Verse (1st guitar)

Eb|-----------------------------------------------|
Bb|-----------------------------------------------|
Gb|-----------------------------------------------|
Db|00000--00000---5-5--------55555-55555-5-5------| [x2]
Ab|00000--00000---5-5-(x2)---55555-55555-5-5-(x2)-|
Db|00000--00000---4-4--------55555-55555-4-4------|
   ddudu  ddudu   d d        ddudu ddudu d d

(2nd guitar plays same thing as 1st, but 2nd time around, he plays this):

|----------------|
|----------------|
|----------------|
|-----7-----(x4)-|
|5-7/9-9---------|
|----------------|

      [Pre-Chorus]

|----------------------|
|----------------------|
|----------------------|  <--- i'm pretty sure that's not what the
|9---7---5---5--000----|       guitarists really play but it works (:
|9---7---5---5--000----|
|9---7---5---4--000----|
                ***

      [Chorus]

|---------------------------------------------------|
|---------------------------------------------------|
|---------------------------------------------------| (listen closely for
|5-5-5555-00-5-5-5555-00-5-5-5555-5555555555555555--|  strumming pattern)
|5-5-5555-00-5-5-5555-00-5-5-5555-5555555555555555--|
|5-4-5554-00-5-4-5554-00-5-4-5554-5555555555555555--|

i don't the 2nd guitar's part for the chorus and i haven't quite figured out the bridge 
but as soon as i do, i'll update this. by the way, this isnt 100% accurate, but it 
works...it would be good for doing an acoustic cover i guess. enoy! (:
Tap to rate this tab
# A B C D E F G H I J K L M N O P Q R S T U V W X Y Z