Song name
# A B C D E F G H I J K L M N O P Q R S T U V W X Y Z

Four Minute Mile - Heisenburg tab

Tabbed By: Sean Wallner
Band: Four Minute Mile
Song: Heisenburg
Album: Bridges/Streetlights
Label: Better Days Records
Tuning: D Standard (DGCFAD)



Intro:                                                       X1
d|------------------------------------------------------------|
a|------------------------------------------------------------|
f|-----------------4~~---6~~---9~~8b~~~-----------------------|
c|----------------4~4~--6~6~--9~9~~~9~~--6~~---8~~---9~~~~9~~-|
g|---------------2~~~2/4~~~4/7~~~7~~~7~-6~6~--8~8~--9~9~~9~9~-|
D|-------------------------------------4~~~4/6~~~6/7~~~77~~~7-|
                                                                    X1
d|-11h12p11\7hp9-9~~~~~~~~~~~~~~~~~~~~~~~~~~~~~~~~~~~~-11h12p11\7hp9-|
a|---------------0~~~~~~~~~~~~~~~~~~~~~~~~~~~~~~~~~~~~---------------|
f|-------------------------------------------------------------------|
c|-------------------------------------------------------------------|
g|-------------------------------------------------------------------|
D|-------------------------------------------------------------------|
                                                X1
d|-----------------------------------------------|
a|-----------------------------------------------|
f|---4~~---6~~---9~~8b~~~------------------------|
c|--4~4~--6~6~--9~9~~~9~~--6~~---8~~---9~~-99999-|
g|-2~~~2/4~~~4/7~~~7~~~7~-6~6~--8~8~--9~9~-99999-|
D|-----------------------4~~~4/6~~~6/7~~~7-77777-|
                                         X1
d|-9~~~~~~~~~~~~~~~~~~~~~------------------------|
a|-0~~~~~~~~~~~~~~~~~~~~~------------------------|
f|-----------------------------------------------|
c|-----------------------------------------------|
g|-----------------------------------------------|
D|------------------------------------{{{{{{{{{{-|




Post-Intro:                                                             X2
d|-----------------------------------------------------------------------|
a|-----------------------------------------------------------------------|
f|-44-4-4-4/66-6-6-6/99-9-9-988-8-9-9------------------------------------|
c|-44-4-4-4/66-6-6-6/99-9-9-999-9-9-9-66-6-6-6/88-8-8-8/99-9-9-999-9-9-9-|
g|-22-2-2-2/44-4-4-4/77-7-7-777-7-7-7-66-6-6-6/88-8-8-8/99-9-9-999-9-9-9-|
D|------------------------------------44-4-4-4/66-6-6-6/77-7-7-777-7-7-7-|
                                                                        X2
d|-----------------------------------------------------------------------|
a|-----------------------------------------------------------------------|
f|-44-4-4-4/66-6-6-6/99-9-9-988-8-9-9------------------------------------|
c|-44-4-4-4/66-6-6-6/99-9-9-999-9-9-9-66-6-6-6/88-8-8-8/99-9-9-999-9-9-9-|
g|-22-2-2-2/44-4-4-4/77-7-7-777-7-7-7-66-6-6-6/88-8-8-8/99-9-9-999-9-9-9-|
D|------------------------------------44-4-4-4/66-6-6-6/77-7-7-777-7-7-7-|




Pre-Verse:                            X1
d|-2~~~~~~~~~~~~-----------------------|
a|-2~~~~~~~~~~~~-----------------------|
f|-4~~~~~~~~~~~~-4p3-6p3-4~~~~~~~~~~~~-|
c|-4~~~~~~~~~~~~-----------------------|
g|-2~~~~~~~~~~~~-----------------------|
D|-------------------------------------|
                                      X1
d|-------------------------------------|
a|-------------------------------------|
f|-------------------------------------|
c|-9~~~~~~~~~~~~~~~~~~~~~~~~~~~~~~~~~~-|
g|-9~~~~~~~~~~~~~~~~~~~~~~~~~~~~~~~~~~-|
D|-7~~~~~~~~~~~~~~~~~~~~~~~~~~~~~~~~~~-|




Verse:                                 X2
d|--------------------------------------|
a|--------------------------------------|
f|---4--4--3--3--3h4--4--4----4-4p3-6p4-|
c|--------------------------------------|
g|-22-22-22-22-22-----------------------|
D|------------------44-44-4400-0--------|
   ** ** ** ** **   ** ** **** *   X2
d|-77777766666666664444447777776666-|
a|-77777777777777777777777777777777-|
f|----------------------------------|
c|----------------------------------|
g|----------------------------------|
D|----------------------------------|
   ********************************



Pre-Chorus:                          X1
d|------------------------------------|
a|------------------------------------|
f|----------------------------33xx3/4-|
c|-2~~~~~~~~~~~~~~~~~~-2~2~2~-33xx3/4-|
g|-2~~~~~~~~~~~~~~~~~~-2~2~2~-11xx1/2-|
D|-0~~~~~~~~~~~~~~~~~~-0~0~0~---------|
                                     X1
d|-7777777777777777777-7~7~7~---------|
a|-5555555555555555555-5~5~5~---------|
f|------------------------------------|
c|------------------------------------|
g|------------------------------------|
D|------------------------------------|




Chorus:                                     X1
d|-------------------------------------------|
a|-------------------------------------------|
f|-4--------------------4----9---13-11-13-11-|
c|-4----2----6----4--2--4----9----X--X--X--X-|
g|-2----2----6----4--2--2----7---11--9-11--9-|
D|------0----4----2--0-----------------------|
                                            X1
d|-------------------------------------------|
a|-------------------------------------------|
f|-4--------------------4--------------------|
c|-4----2----6----4--2--4----2----6--4--6--4-|
g|-2----2----6----4--2--2----2----6--4--6--4-|
D|------0----4----2--0-------0----4--2--4--2-|
                                                                    X1
d|-------------------------------------------------------------------|
a|-------------------------------------------------------------------|
f|----99p8~~~88h9~~~1111p9~~~9p89p8~~~~~99p8~~~88h9-1111--99--88--99-|
c|-9~~~~~~9~~~~~~9~~~~~~~~9~~~~~~~~~~9~~~~~~9~~~~~~--9-9--99--99--99-|
g|-------------------------------------------------------------------|
D|-------------------------------------------------------------------|
                                            X1
d|-------------------------------------------|
a|-------------------------------------------|
f|-4--------------------4----9---13-11-13-11-|
c|-4----2----6----4--2--4----9----X--X--X--X-|
g|-2----2----6----4--2--2----7---11--9-11--9-|
D|------0----4----2--0-----------------------|




Post-Chorus:                            X1
d|---------------------------------------|
a|------12~~~~12~~~~~~~~~~~12~~~~12~~~~~-|
f|--------11~~~~11~~11~~~~~~~11~~~~11~~~-|
c|-14~14~~~~14~~~~14~~~~13~~~~~13~~~~13\-|
g|---------------------------------------|
D|---------------------------------------|
               X1
d|--------------|
a|--------------|
f|----9----8----|
c|----9----9----|
g|----7----6----|
D|--------------|




2nd Verse:                                X1
d|-----------------------------------------|
a|--7~~~----------------4~~~~~~~~~--4~4/5~-|
f|---8~~6h8p6-8~~~8h9~---4~~4h6p4~-4~~~~~~-|
c|-9~~~9-------9~~~~~~-6~~~6~~~~~~2~~2~~~~-|
g|-----------7~~~7~~~~---------------------|
D|-----------------------------------------|
                                          X1
d|-----------------------------------------|
a|-----------------------------------------|
f|-----------------------------------------|
c|-9~~~~~~~~~~~~~~~~~~~~~~~~~~~~~~~~~~~~~~-|
g|-----------------------------------------|
D|-----------------------------------------|
                                             
                                          X1
d|-----------------------------------------|
a|--7~~~----------------4~~~~~~~~~--4~4/5~-|
f|---8~~6h8p6-8~~~8h9~---4~~4h6p4~-4~~~~~~-|
c|-9~~~9-------9~~~~~~-6~~~6~~~~~~2~~2~~~~-|
g|-----------7~~~7~~~~---------------------|
D|-----------------------------------------|
                                                                   X1
d|------------------------------------------------------------------|
a|------------------------------------------------------------------|
f|-44444444444444449999999999999999----------------9999999999999999-|
c|-4444444444444444999999999999999966666666666666669999999999999999-|
g|-2222222222222222777777777777777766666666666666667777777777777777-|
D|---------------------------------4444444444444444-----------------|
   ****************************************************************



Pre-Chorus 2:                                     X!
d|-------------------------------------------------|
a|-------------------------------------------------|
f|---4~~~~~~--8b~~~~~--4~~~~~~--888888888888888-88-|
c|--6~~~~~~~-9~~9~~~~-6~~~~~~~--999999999999999-99-|
g|-4~~~~~~~~7~~~~~~~~4~~~~~~~4/7777777777777777-77-|
D|-------------------------------------------------|
                                        *******   X1 
d|-------------------------------------------------|
a|-------------------------------------------------|
f|-4~~~~~~~~8~~~~~~~~4~~~~~~~~--88888888--------88-|
c|-6~~~~~~~~9~~~~~~~~6~~~~~~~~--99999999--------99-|
g|-4~~~~~~~~7~~~~~~~~4~~~~~~~~--77777777--------77-|
D|-------------------------------------------------|




Chorus:                                     X1
d|-------------------------------------------|
a|-------------------------------------------|
f|-4--------------------4----9---13-11-13-11-|
c|-4----2----6----4--2--4----9----X--X--X--X-|
g|-2----2----6----4--2--2----7---11--9-11--9-|
D|------0----4----2--0-----------------------|
                                            X1
d|-------------------------------------------|
a|-------------------------------------------|
f|-4--------------------4--------------------|
c|-4----2----6----4--2--4----2----6--4--6--4-|
g|-2----2----6----4--2--2----2----6--4--6--4-|
D|------0----4----2--0-------0----4--2--4--2-|
                                                                    X1
d|-------------------------------------------------------------------|
a|-------------------------------------------------------------------|
f|----99p8~~~88h9~~~1111p9~~~9p89p8~~~~~99p8~~~88h9-1111--99--88--99-|
c|-9~~~~~~9~~~~~~9~~~~~~~~9~~~~~~~~~~9~~~~~~9~~~~~~--9-9--99--99--99-|
g|-------------------------------------------------------------------|
D|-------------------------------------------------------------------|
                                            X1
d|-------------------------------------------|
a|-------------------------------------------|
f|-4--------------------4----9---13-11-13-11-|
c|-4----2----6----4--2--4----9----X--X--X--X-|
g|-2----2----6----4--2--2----7---11--9-11--9-|
D|------0----4----2--0-----------------------|




Post-Chorus:                            X1
d|---------------------------------------|
a|------12~~~~12~~~~~~~~~~~12~~~~12~~~~~-|
f|--------11~~~~11~~11~~~~~~~11~~~~11~~~-|
c|-14~14~~~~14~~~~14~~~~13~~~~~13~~~~13\-|
g|---------------------------------------|
D|---------------------------------------|
               X1
d|--------------|
a|--------------|
f|----9----8----|
c|----9----9----|
g|----7----6----|
D|--------------|




Bridge:                           X1                                    X2
d|---------------------------------|-------------------------------------|
a|---------------------------------|--7~~~~~~~-7~~~~~~~-7~~~~~~~~7~~~7~~-|
f|-4~~~~~~~~~~~~~~~~~~~~~~~~~~~~~~-|---6~~~~~~--6~~~~~~--6~~~~~~9~9~8~8~-|
c|-4~~~~~~~~~~~~~~~~~~~~~~~~~~~~~~-|-9~~~9~~~~9~~~9~~~~9~~~9~~~~---------|
g|-2~~~~~~~~~~~~~~~~~~~~~~~~~~~~~~-|-------------------------------------|
D|---------------------------------|-------------------------------------|
                                  X1                                X2
d|---------------------------------|---------------------------------|
a|---------------------------------|---------------------------------|
f|---4~~~~--6~~~~--9~8b~~~9~~8b~~~-|---4~~~~--6~~~~--9~8b~~~9~~8b~~~-|
c|--4~4~4~-6~6~6~-9~9~~~~9~9~~~~9~-|--4~4~4~-6~6~6~-9~9~~~~9~9~~~~9~-|
g|-2~~~2~~4~~~4~~7~~~~~~~~~~~~~7~~-|-2~~~2~~4~~~4~~7~~~~~~~~~~~~~7~~-|
D|---------------------------------|---------------------------------|
                                  X1                                    X2
d|-2~~~~~~~~~~~~~~~~~~~~~~~~~~~~~~-|-------------------------------------|
a|-2~~~~~~~~~~~~~~~~~~~~~~~~~~~~~~-|-------------------------------------|
f|-4~~~~~~~~~~~~~~~~~~~~~~~~~~~~~~-|-44444444-66666666-99999999-99999999-|
c|-4~~~~~~~~~~~~~~~~~~~~~~~~~~~~~~-|-44444444-66666666-99999999-99999999-|
g|-2~~~~~~~~~~~~~~~~~~~~~~~~~~~~~~-|-22222222-44444444-77777777-77777777-|
D|---------------------------------|-------------------------------------|
                                     ******** ******** ******** ******** 
                                        X1
d|---------------------------------------|
a|--7~~~~~~~-7~~~~~~~-7~~~~~~~~7~~-------|
f|---6~~~~~~--6~~~~~~--6~~~~~~9~9~8b~~~~-|
c|-9~~~9~~~~9~~~9~~~~9~~~9~~~~-----------|
g|---------------------------------------|
D|---------------------------------------|
                                        X1
d|---------------2~~~~~~~~~~~~~~~~~~~~---|
a|----------------2~~~~~~~~~~~~~~~~~~~---|
f|-4~~~~~~~~~~~~~~~4~~~~~~~~~~~~~~~~~~---|
c|-4~~~~~~~~~~~~~~~~4~~~~~~~~~~~~~~~~~2~-|
g|-2~~~~~~~~~~~~~~~~~2~~~~~~~~~~~~~~~~2~-|
D|------------------------------------0~-|
                                      * X1
d|---------------------------------------|
a|---------------------------------------|
f|-4~~~~~~~~~~~~~~~~~~~~~~~~~~~~~~~~~~---|
c|-4~~~~~~~~~~~~~~~~~~~~~~~~~~~~~~~~~~2~-|
g|-2~~~~~~~~~~~~~~~~~~~~~~~~~~~~~~~~~~2~-|
D|------------------------------------0~-|
                                      *



Outro 1:                                                                X2
d|-----------------------------------------------------------------------|
a|-77777777-77777777-1212121212121212-77777777-77777777-1212121212121212-|
f|-88888888-8h999999-1111111111111111-88888888-8h999999-1111111111111111-|
c|-99999999-99999999-9999999999999999-99999999-99999999-9999999991111999-|
g|-----------------------------------------------------------------------|
D|-----------------------------------------------------------------------|
                                                                        X2
d|-----------------------------------------------------------------------|
a|-----------------------------------------------------------------------|
f|-44444444-66666666-9999999999999999-44444444-66666666------------------|
c|-44444444-66666666-9999999999999999-44444444-66666666-2222222222222222-|
g|-22222222-44444444-7777777777777777-22222222-44444444-2222222222222222-|
D|------------------------------------------------------0000000000000000-|
                                  X4
d|---------------------------------|
a|---------------------------------|
f|---4~~~~--6~~~~--9~8b~~~9~~8b~~~-|
c|--4~4~4~-6~6~6~-9~9~~~~9~9~~~~9~-|
g|-2~~~2~~4~~~4~~7~~~~~~~~~~~~~7~~-|
D|---------------------------------|


Outro 2:                                                                X2
d|-00000000-00000000--0-0-0-0-0-0-0-0-00000000-00000000--0-0-0-0-0-0-0-0-|
a|-77777777-77777777-1212121212121212-77777777-77777777-1212121212121212-|
f|-88888888-8h999999-1111111111111111-88888888-8h999999-1111111111111111-|
c|-99999999-99999999--9-9-9-9-9-9-9-9-99999999-99999999--9-9-9-9111111-9-|
g|-----------------------------------------------------------------------|
D|-----------------------------------------------------------------------|
                                                            X2
d|-----2~~~~~~2~~~~~~2~~~~~~2~~~~~~2~~~~~~2~~~~~~2~~~~~~2~~~-|
a|-------2~~~~~~2~~~~~~2~~~~~~2~~~~~~4~~~~~~4~~~~~~4~~~~~~4~-|
f|-4~4~~~~~~4~~~~~~4~~~~~~4~~~~4~4~~~~~~4~~~~~~4~~~~~~4~~~~~-|
c|-----------------------------------------------------------|
g|-----------------------------------------------------------|
D|-----------------------------------------------------------|



Turned my summer into cold
It's impossible to catch a break from all this rain 
and things that make you sick
but never again 
will I let myself down for someone I'll lose in the end
Thing won't always end up perfect, 
but is this weather even worth it?

I tried to keep myself head above water, 
but I never told you that I couldn't swim
Not like you'd save me if you saw me sinking

I never wanted to leave, 
and I don't believe what I can't see
So who knows whats real, 
you've got the best of me
And I've got the worst of things
Time heals all your wounds but mend your own broken bones
And I'm giving in

What does it take to make this normal again?
Leaving everything behind won't fix what you don't understand
So just be real with yourself, 
forget everyone else

I never wanted to leave, 
and I don't believe what I can't see
So who knows whats real, 
you've got the best of me
And I've got the worst of things
Time heals all your wounds but mend your own broken bones
And I'm giving in

But it's not enough for me
But it's not enough for me
But it's not enough for me
But it's not enough for me

So many nights spent chasing you down empty streets
I finally figured out a reason I could never keep you around
and I'm cutting down all the ties that kept this alive
So many doors I tried to break down and see
what's ahead, and how I get there, and a place to sleep
But it's not enough for me








d|----------|
a|----------|
f|- SEAN'S -|
c|- GUITAR -|
g|----------|
D|----------|
 |
d|--------------|
a|--------------|
f|---- 2nd  ----|
c|--- GUITAR ---|
g|--------------|
D|--------------|

TAB KEY
____________________
~ = Let Note Ring   |
                    |
` = Tremelo Picking |
                    |
\ = Slide Down Neck |
                    |
/ = Slide Up Neck   |
                    |
h = Hammer On       |
                    |
p = Pull Off        |
                    |
b = Bend String     |
                    |
x = chugs           |
                    |
* = Palm Mute       |
                    |
{ = Pick Scrape     |
____________________|
Tap to rate this tab
# A B C D E F G H I J K L M N O P Q R S T U V W X Y Z