Song name
# A B C D E F G H I J K L M N O P Q R S T U V W X Y Z

Four Tet - She Just Likes To Fight tab

-------------------------------------------------------------------------------
                   She Just Likes to Fight - Four Tet
-------------------------------------------------------------------------------
Tabbed by:
E-mail:

Tuning: Standard                            

e|--------------------------------------PICKING PATTERN----------------------|
B|---------------------------------------------------------------------------|
G|--6---7---4---2---11---14----------------X-----X----X----------------------|
D|--0---0---0---0----0----0-------------X-------X----------------------------|
A|--x---x---x---x----x----x--------------------------------------------------|
E|--5---7---3---2---10---14----------X--------X----X-------------------------|


Notes on the G string can be heard an ocatve higher during some parts of the song



Played over chords for most of song


e|---------------------------------------------------------------------------|
B|---------------------7--------------------15-------------------------------|
G|------7-------9---------------------14h16-----14-16-14-16p14---------------|
D|---------------------------------------------------------------------------|
A|---------------------------------------------------------------------------|
E|---------------------------------------------------------------------------|
Tap to rate this tab
 
# A B C D E F G H I J K L M N O P Q R S T U V W X Y Z